Новогодняя мелодия на гитаре! «В лесу родилась елочка» — Табы и видео разбор!

"В лесу родилась елочка" - мелодия на гитаре!

Всех с наступающим Новым Годом! Предлагаю для разбора новогоднюю и очень простую мелодию на гитаре известной детской песни "В лесу родилась елочка". Вся играется на 3-х струнах и одним пальцем п. руки! В общем, ничего сложного, поэтому для начинающих гитаристов она может стать отличным тренажером для развития пальцев левой руки! Ниже представлены табы мелодии в тональности D (ре-мажор) и видео-разбор для новичков. Также есть видео мелодии в одну гитару с табами, для более опытных гитаристов.

Табы мелодии - самый простой вариант (голосовая партия)

1|----2-2-0-2-----------2-2-3-7-5---
2|------------3---------------------
3|--2-----------2-2---2-------------

1|--5-----3-3-2-0-------2-2-0-------
2|----------------3-----------3-----
3|----4-4-------------2---------2----

1|--5-----3-3-2-0-------2-2-0-------
2|----------------3-----------3-----
3|----4-4-------------2---------2----

Видео мелодии (голосовая партия в одну и в две гитары. Подробный разбор)

"В ЛЕСУ РОДИЛАСЬ ЕЛОЧКА" (Новогодняя песня)

Табы мелодии (полный вариант)

1|-----2--2--0--2---------------2--2--3--7--5--------
2|-----------------3---------------------------------
3|--2-----------------2--2---2-----------------------
4|-----0-----------0--------0---0-----------0-----0--
5|-----------0------------------------0--------0-----
6|---------------------------------------------------


1|--5--------3--3--2--0---------2--2--0--2-----------
2|--------------0--------3------------------3--------
3|-----4--4------------------2-----------------2-----
4|-----------2-----0------------0-----------0-----0--
5|--------------------0--2------------0--------------
6|-----3---------------------------------------------


1|--5--------3--3--2--0---------2--2--0--2-----------
2|--------------0--------3------------------3--------
3|-----4--4------------------2-----------------2-----
4|-----------2-----0------------2-----------0-----0--
5|--------------------0--2------------0--------------
6|-----3---------------------------------------------

Видео мелодии 2 (игра в одну гитару, табы)

ДЕТСКИЕ ПЕСНИ ПОД ГИТАРУ

Опубликовано: 8 Дек. 2017. Просмотров: 33