Новгодняя мелодия — «Праздник к нам приходит». Табы

«Праздник к нам приходит» — известная новогодняя мелодия (песня), благодаря ТВ рекламе. На гитаре ее тоже несложно сыграть (спеть). Если говорить о мелодии, то можно исполнить, как сложную версию — для опытных, так и легкую — одним пальцем, для начинающих гитаристов.

«Праздник к нам приходит» Табы

Первая часть:

1|-0-----0-0-0-0-0---
2|-1-----1-1-1-1-1---
3|-0-----0-0-0-0-0---
4|-------------------
5|----3--------3-----
6|-------------------

1|-0-----0-0-0-0-0---
2|-1-----1-1-1-1-1---
3|-0-----0-0-0-0-0---
4|----0--------0-----
5|-------------------
6|-------------------

1|-0-----0-0-0-0-0---
2|-1-----1-1-1-1-1---
3|-2-----2-2-2-2-2---
4|-------------------
5|----0--------0-----
6|-------------------

1|-0-----0-0-0-0-0---
2|-1-----1-1-1-1-1---
3|-2-----2-2-2-2-2---
4|-------------------
5|-------------------
6|----1--------1-----

Вторая часть:

1|-0--0--0--3--1----
2|----1-------------
3|----0-------------
4|------------------
5|----3----------3--
6|------------------

1|-1--0----------0--------
2|-------3----1--------1--
3|------------------------
4|---------0--------0-----
5|------------------------
6|------------------------

1|--0--0--3--1-----0--
2|--1-----------------
3|--2-----------------
4|--------------------
5|--0-----------0-----
6|--------------------

1|---------3--0---------
2|--3----3----------1---
3|----------------------
4|----------------------
5|----------------------
6|----1----------1------


1|-0-------0---3--1--0---
2|-1--0--3---3-0---------
3|-0-----------0---------
4|-------------0-----0---
5|-3---------------------
6|-----------------------

1|---0---0--------0---0----
2|-3---3-1--0--3----3----1-
3|-------2-----------------
4|-------------------------
5|-------0-----------------
6|------------------1----1-


Третья часть:


1|-0--0--0--3--1----
2|------------------
3|------------------
4|------------------
5|----3------------
6|------------------

1|-1--0---------0------
2|-------3---1-----1---
3|---------------------
4|---------------------
5|---------------------
6|---------------------

1|--0--0--3--1----0---
2|--------------------
3|--------------------
4|--------------------
5|--0-----------------
6|--------------------

1|---------3--0-------
2|--3---3---------1---
3|--------------------
4|--------------------
5|--------------------
6|--------------------


1|-12---8---10--12-8---

«Праздник к нам приходит» Видео 1

(Разбор легкой версии мелодии для начинающих)

 

«Праздник к нам приходит» Видео 2

(более сложная версия мелодии с табами — для опытных гитаристов)

0,152