Somewhere in my memory — известный сингл из х/ф «Один дома». Чаще всего эту песню исполняют как рождественскую, новогоднюю мелодию. Лично мне нравится только небольшая часть (красивый фрагмент), которую можно играть на гитаре по кругу и при желании уйти на концовку из 2-ух нот

Somewhere in my memory. Табы

(фрагмент)

Часть-1

1|--3-----0-----3-----0-----
2|--------------------------
3|-----0-----0-----0-----0--
4|--------------------------
5|--3-----------2-----------
6|--------------------------

1|--8---------3-----0------
2|--------6------0-----0---
3|-----5-------------------
4|-------------------------
5|--0---------2------------
6|-------------------------

Часть-2

1|--------5---3--------1--
2|-----3------------1-----
3|---------------0--------
4|--3---------------------
5|------------------------
6|------------0-----------


1|--0-------------------
2|--------1---3---------
3|-----2-----------0----
4|--3-------------------
5|------------2---------
6|----------------------

Часть-3

1|--3-----0-----3-----0----- 
2|-------------------------- 
3|-----0-----0-----0-----0-- 
4|-------------------------- 
5|--3-----------2----------- 
6|-------------------------- 

1|--8---------3-----0------ 
2|--------6------0-----0--- 
3|-----5------------------- 
4|------------------------- 
5|--0---------2------------ 
6|-------------------------

Часть-4

1|------5-7-7h8--3-----0-----
2|---------------------------
3|------------------------0--
4|--3------------------------
5|------------------3--------
6|---------------------------

1|-------5-7-7h8--3-----0----
2|---------------------------
3|----2--------------------0-
4|--3------------------------
5|-------------------3-------
6|---------------------------

1|-------3/5-7-8---3----0----
2|---------------------------
3|----2---------------0----0-
4|--3------------------------
5|-----------------3---------
6|---------------------------

1|-------8--------7----
2|--1------------------
3|-----------0---------
4|--0------------------
5|---------------------
6|---------------------

Концовка
1|--8---------- 
2|------------- 
3|------------- 
4|-------------
5|-------------
6|-----8-------

Somewhere in my memory. Видео

(Пример исполнения и подробный разбор с табами)

1,302