«Звездочка моя ясная» — красивая, лирическая композиция от легендарного ВИА Цветы (группа Стаса Намина). Аккорды в родной тональности (Gm) почти все идут на баррэ, поэтому для значительного их упрощения, рекомендую исполнять ее в Em. А в остальном, песня несложная!

Звездочка моя ясная. Перебор

(на всю песню)

(Бас+2+1)-3-

  • для лучшего понимания рекомендую посмотреть видео разбор

Звездочка моя ясная. Аккорды, текст

Вступление:
G Dsus2 C H7 - 2 р. 

Em            Hm
Песни у людей разные,
Em          D
А моя одна на века.
  G           D     H7
Звёздочка моя ясная,
Em           C Em/H
Как ты от меня
Am G6 D/F#
Да-ле-ка-а!

Припев:
Em     Am  Am/H  Am   Em
Поздно мы с тоб-о-ой поняли,
 Em     Am Am/H   Am  D   G
Что вдвоём вдвойне-е веселей
 G    Am Am/H Am H7 Em  Em/D
Даже проплыва-а-ть по небу,
Em/C Em/H Am  Am/G Am/F#
А    не   то, что  жить
 H7    Em
На земле.

Проигрыш: Em F#7 H7

Em 	     Hm
Облако тебя трогает,
 Em            D
Хочет от меня закрыть.
 G             D   H7
Чистая моя, строгая,
Em        C Em/H  
Как же я хочу 
Am G6  D/F#
Рядом б-ы-ть.

Припев 

Проигрыш: Em F#7 H7

Em 	      Hm
Знаю, для тебя я не бог.
Em                D
Крылья, говорят, не те.
  G                D    H7
Мне нельзя к тебе на небо
Em   C Em/H  Am G6 D/F#
А--А-A-А    прилет-e-eть.

Припев - 2 раза

Звездочка моя ясная. Видео

(разбор с аппликатурами аккордов и примерами исполнения)

 
Разбор куплета — на 3:53 минуте.
Разбор припева — на 8:35 минуте.

Звездочка моя ясная. Табы вступления

1|--------------------| 
2|--0-----0--------3--| 
3|--0--0--0--0--2-----| 
4|--------------------| 
5|--------------------| 
6|--3-----3-----------|

 
1|--------------0--2--| 
2|--3-----3-----------| 
3|-----2-----2--------| 
4|--0-----0-----0-----| 
5|--------------------| 
6|--------------------|


1|--3-----3-----5--3--| 
2|--------------------| 
3|-----0-----0--------| 
4|--------------------| 
5|--3-----3-----------| 
6|--------------------|


1|--2-----2-----3--2--| 
2|--0-----0-----------| 
3|-----2-----2--------| 
4|--------------------| 
5|--2-----2-----------| 
6|--------------------|
Поддержи сайт через юмани:

0,298