Поздравляем песней под гитару! «Мы желаем счастья вам!» (ВИА «Цветы»), аккорды. Видео.

Мы желаем счастья вам, Цветы, аккордыВокально инструментальный ансамбль «Цветы» позднее переименованный в «Группа Стаса Намина», известная своими хитами:  «Юрмала», «Летний вечер», «Мы вам честно сказать хотим», «Мы желаем счастья вам
Все композиции дарят светлое и радостное настроение.  А песней «Мы желаем счастья вам!» можно поздравить своих знакомых и друзей с любым праздником, в том числе  Новым и Старым Новым годом, исполнив ее под гитару!  Лучше поздно, чем никогда…

Описание игры на гитаре, текст, аккорды, видео (кавер):

Рекомендуемый бой в куплетах:

бас—глушить-вверх—бас-вверх-вниз-вверх— и повтор…

или:

бас—глушить-вверх—бас-вверх-глушить-вверх-

  • для ориентира: на ак. A7 — бой проигрываем 1 раз, на Dm — 2 раза, на Gm — 1 раз…
  • для лучшего понимания боя нужно придерживаться такого ритма: пам—па-рам—пам-па-ра-рам-…. И конечно же нужно следовать мелодии песни, т.к. на некоторых аккордах (в припеве) бой играется не полностью.

Рекомендуемый бой в припевах:

вниз—глушить-вверх—вверх-глушить-вверх- повтор…

  • на словах «Мы желаем» (ак. A7) : вниз(сильно)-вверх-вниз(сильно)-вверх-, а дальше вышеописанным боем….

Аккорды в тональности Dm — не оригинал, но более оптимальная для игры и пения. Родная же тональность — Hm.

Пробовал ее петь под тон-ть Em (аккорды уже будут без баррэ), но оказалась слишком высокой для голоса… Если кому-то захочется все таки спеть в Em, то советую ослабить струны хотя бы на 1 тон. (Как перевести аккорды в другую тональность?)

«Мы желаем счастья вам!»

Мы желаем счастья вам, текст и аккорды

Припев

Видео (кавер и аппликатуры аккордов в Dm):

Табы голосовой партии на второй гитаре:

Спойлер

куплет:

B--9/10-9-10-9-10---------------13-11-|
G------------------------10--7--------| > 2 раза

 

B--9/10-9-10-9-10----------------11-11--13-11-10-
G----------------------10--7--7------------------

 

B--9/10-9-10-9-10------------13-11-|
G----------------------10--7-------|> 2 раза

 

E------------------------------------------------9--12-
B--9/10-9-10-9-10----------------11-11--13-11-10-------
G-----------------------10--7--7-----------------------

 

припев:

E--------------------13--10------------
B--10--10-10-10-------------10---10--10-10-10--13--11-11h13-11-

 

B--11-10-8-10-8------10--10-10--10---------10-
G------------------9------------------7--10--

 

E--------------------13--10--
B--10--10-10-10-------------10---10--10-10-10--13--11-11h13-11-

 

E-------------------------------------13--12--10-
B---11-10-8-10-8------10--10-10--10--------------
G-------------------9----------------------------

Как читать табулатуру?

[свернуть]

НОВОГОДНИЕ ПЕСНИ ПОД ГИТАРУ!

1,493