Новогодняя мелодия — Белые снежинки. Табы

Всех С Новым Годом!!! Детскую, новгоднюю песню Белые снежинки я уже выкладывал недавно, а в этот раз займемся мелодией, которая отлично подойдет тем гитаристам, которые не хотят утраждать себя в пении, но хотят при этом значительно развить навык игры на гитаре!

Белые снежинки. Табы мелодии

(Вступление)

    C          Dm
1|--0-----0-----1--0--1----
2|-----3-----1-----------3-
3|-------------------------
4|--------------0----------
5|--3----------------------
6|-------------------------

   G6/E 
1|--3--1--3--0--5---7----
2|-----------------------
3|-----------------------
4|--------------3---5----
5|-----------------------
6|--0--------------------

(Основная часть)

    C           Dm
1|--0-----0-----1---------- 
2|--1---3---1---------3---- 
3|--0--------------2-------
4|--------------0---------- 
5|--3---------------------- 
6|-------------------------

    G           C
1|--------------0---------- 
2|--3--1--3--0------------- 
3|--0----------------0----- 
4|-----------------2---2--- 
5|--------------3---------- 
6|--3----------------------

    Am          D
1|------------------------- 
2|--1--0--1-----3---------- 
3|--2--------2---------2---
4|--------------0---------- 
5|--0---------------------- 
6|-----------------2-------

    G           C
1|------------------------
2|--0-----0-----1---------
3|--0--2-----0------------
4|------------------------
5|--------------3-----3--- 
6|--3--------------3------

    C7          F
1|--------0--3--5-----1---
2|--1--3-----------1------
3|--3---------------------
4|--------------3---------
5|--3--------------------- 
6|------------------------

    Em    A7    Dm
1|-----------0--1-----------
2|-----0--2-----------3-----
3|--2--------------2-----2--
4|--------------0-----------
5|-------------------------- 
6|--0-----------------------

    Bb         Am
1|--1--0--1-----0---------
2|--1--------3--------1---
3|--1--------------2------
4|------------------------
5|--1-----------0--------- 
6|------------------------

    D     G     C
1|------------------------
2|--3--1--0--3--1---------
3|--2-----0-----0---------
4|--0--------------2------
5|--------------3-----3--- 
6|--------3---------------

Белые снежинки. Видео мелодии

1,250