Noize MC — Питерские крыши. Аккорды, табы

«Питерские крыши»  (от NOIZE MC) — интересная, местами романтичная песня, под которую можно ностальгировать и параллельно развивать свои пальцы, голос и чувство ритма. Звучит в тональности Em, для упрощения лучше всего играть ее на обычных аккордах (без баррэ). Перебор несложный, но все таки рекомендую после первого четверостишия перейти на гитарный бой…

Питерские крыши Бой

Вниз—вниз—вверх-вверх-вверх-вниз—вниз-вверх-

  • чтобы понять как его играть в т.ч. на аккордах, рекомендую посмотреть видео разбор (с 6:10 минуты)

Питерские крыши Табы, аккорды 

E|-----------------|
H|-----------------|
G|------------0----| 
D|------------4----|
A|--------2--------|
E|---0-------------|


E|---------------------|
H|---------------------|
G|----0----------0-----| 
D|------2--------0-----|
A|---------3-----0-----| 
E|-3-------------2-----|

Noize MC - Питерские крыши. Аккорды, слова, на гитаре

Noize MC - Питерские крыши Аккорды, слова, на гитаре

Noize MC - Питерские крыши Аккорды, слова, на гитаре

Питерские крыши Видео

(кавер, аппликатуры аккордов, табы и разбор)

0,447