Девушка по городу - Ю-Питер - Аккорды«Девушка по городу» — еще одна весенняя — бодренькая композиция, только уже от группы «Ю-Питер» — можно сказать эхо «Наутилус Помпилиус» , т.к.  лидером и того и другого коллектива является неизменный Вячеслав Бутусов. В тональности Am песня играется попроще, но все равно есть аккорды на баррэ. Зато бой легкий, да и поется без проблем — голосовые связки рвать не надо  .

Бой Девушка по городу

Вниз-вверх-глушить-вверх- и повтор…

  • проигрывается по 4 раза на каждом аккорде вступления и припева

А в куплетах, без глушки:

Вниз-вверх-вниз-вверх -…

  • в первых 2-ух строчках проигрывать нужно по 1-му разу на аккорде, а в следующих 2-ух — по 4 раза на аккорд

Можно усложнить (обогатить) бой и играть на вступлении и в припевах так:

Вниз-вверх-вниз-вверх-глушить-вверх-вниз-вверх- 

  • играется он по 2 раза на каждом аккорде

Аккорды Девушка по городу

Вступление: Am, F, G, E  — 2 раза

 Табы вступления (для второй гитары):

1|-8-8-8-8---5-5-5-5---------------------
2|---------------------5-5-5-5-----------
3|-------------------------------5-5-5---
1|-8-8-8-8---5-5-5-5---------------------
2|---------------------6-6-6-6-----------
3|-------------------------------7-7-7---
1|-10-10-10-10---7-7-7-7-------------------
2|-------------------------8-8-8-8---------
3|-----------------------------------7-7-7-
1|-10-10-10-10---7-7-7-7-------------------
2|-------------------------9-9-9-9---------
3|-----------------------------------9-9-9-

Девушка по городу - Юпитер - Аккорды в Am и текст

Спойлер

Вступление: Gm, Eb, F, D  — 2 раза

Чтобы получить табы для этой тональности, нужно взять табы тон-ти Am и понизить их на 1 тон = 2 лада

Девушка по городу - Ю-питер - Аккорды и текст

Остальной текст есть выше…

[свернуть]

Видео Девушка по городу

(кавер, аппликатуры аккордов и разбор)

«ПРОГУЛКИ ПО ВОДЕ» (Наутилус)
«НА БЕРЕГУ БЕЗЫМЯННОЙ РЕКИ»
«КРЫЛЬЯ»
«Я ХОЧУ БЫТЬ С ТОБОЙ»
«ДЫХАНИЕ»

Поддержи сайт через юмани:

1,572