СПЛИН — Двое не спят. Аккорды на гитаре

"Двое не спят" Сплин - очередная интересная песня под гитару от Сплинов. Лучше всего подходит для исполнения у костра и т.п.... Звучит она в тональности Am (ля-минор) - все аккорды простые, но гитарный перебор таковым не назову. Если вы новичок, полезно будет разобрать его для развития пальцев п. руки. Хотя, при желании ее всю можно обыграть самым простым перебором - "шестерка".

Перебор Двое не спят

Бас-3-2-1-2-3-...

  • на первой строчке - обыгрывается по одному разу на Am и G, а на последнем (Am) - 2 раза
  • дальше везде играется по одному разу на каждом аккорде, кроме связки C и C/H - на каждом играем только (бас-3-2-)
  • на самой последней строке каждого куплета, на последнем аккорде (Am) - перебор играется 2 раза.

Аккорды Двое не спят

Строки окрашенные зеленым цветом поются 2 раза

Табы перебора вступления:
   Am               Asus2
E|---------------0-------------|
Н|-------0h1-----------0-------|
G|-----2-------2-----2-----2---| x3
D|---2-------2-----2-----2-----|
A|-0---------------------------|

   Am
E|---------------0-------------|
Н|-------0h1-------------------|
G|-----2-------2---------------|
D|---2-------2-----------------|
A|-0---------------------------|

Табы перебора куплета:
   Am              G           Am       
E|-------------------------------------------0------------|
Н|-------0h1------------0------------0h1-----------1------|
G|-----2-------2------0-----0------2-------2-----2-----2--|
D|---2-------2------0-----0------2-------2-----2-----2----|
A|-0---------------------------0--------------------------|
E|----------------3---------------------------------------|

   C              G            C              A7
E|---------------------------------------------------------|
Н|-------0h1------------0------------0h1------------2------|
G|-----0-------0------0-----0------0-------0------0-----0--|
D|---2-------2------0-----0------2-------2------2-----2----|
A|-3---------------------------3--------------0------------|
E|----------------3----------------------------------------|

   Dm             G            C      C/H    Am
E|-------0h1-----------------------------------------------|
Н|-----3-------3-------0--------------------------0h1------|
G|---2-------2-------0-----0-------0------0------2-------2-|
D|-0---------------0-----0-------2------0------2------2----|
A|-----------------------------3------2------0-------------|
E|---------------3-----------------------------------------|

   Dm             E            Am            A7 
E|-------0h1-----------------------------------------------|
Н|-----3-------3--------0------------0h1-----------2-------|
G|---2-------2--------1-----1------2-------2-----0-----0---|
D|-0----------------2-----2------2-------2-----2-----2-----|
A|-----------------------------0-------------0-------------|
E|----------------0----------------------------------------|

   Dm             G            C      C/H   Am
E|-------0h1-----------------------------------------------|
Н|-----3-------3-------0--------------------------0h1------|
G|---2-------2-------0-----0-------0------0------2-------2-|
D|-0---------------0-----0-------2------0------2------2----|
A|-----------------------------3------2------0-------------|
E|---------------3-----------------------------------------|

   Dm             E            Am             
E|-------0h1---------------------------------0--------|
Н|-----3-------3--------0------------0h1--------------|
G|---2-------2--------1-----1------2-------2----------|
D|-0----------------2-----2------2-------2------------|
A|-----------------------------0----------------------|
E|----------------0-----------------------------------|
 Сплин - Двое не спят. Аккорды на гитаре и слова песниТабы перебора в концовке:
   Gm6                      Am
E|-------0-----0-----0--------------------0-|
H|-----3-----3-----3-----3--------0h1-------|
G|---3-----3-----3-----3--------2-------2---|
D|----------------------------2-------2-----|
A|--------------------------0---------------|
E|-3----------------------------------------|

Видео Двое не спят

(кавер, аппликатуры аккордов и разбор)

"ВЫХОДА НЕТ" (Сплин)
"МОЕ СЕРДЦЕ"
"ОРБИТ БЕЗ САХАРА"
"ТАНЦУЙ"
"РОМАНС"

Опубликовано: 15 Ноя. 2017. Просмотров: 907