АМЕГА — Лететь. Аккорды на гитаре

Амега - "Лететь" - очень красивая песня в 5 аккордов! В родной тональности (Сm) все аккорды идут на баррэ, поэтому для их упрощения рекомендую играть в Am. И чтобы сохранить звучание оригинала, советую зажать каподастр на 3-м ладу... По вокалу песня несложная. Гитарный бой немного потруднее.

Бой Лететь

Вниз---вниз---вверх-вверх-вниз-вниз--вниз-вверх-

  • обыгрывается по одному разу на каждом аккорде, как куплета, так и припева

Аккорды Лететь

Амега - Лететь, аккорды для гитары, слова песниАмега - Лететь, аккорды для гитары, слова песни2

Табы соло в проигрыше: 

G|---4--2--0----------4--2--0--2---0----
D|------------2-------------------------


H|-----3-----------------------------
G|--4-----4--2-------2--2h4-2---0----


G|---4--2--0----------4--2--0--2---0----
D|------------2-------------------------


E|-----------------------3-----------------------
H|-----3--5-----------3-----5-/5-/5--3-----------
G|--4--------2-----4-------------------4-2-2p0-2-

Припев

                Am     Em
Однажды он сказал

Видео Лететь

(кавер, аппликатуры аккордов в Am и разбор)

Опубликовано: 18 Апр. 2018. Просмотров: 643