Прыгну со скалы - КиШ - аккорды

Вновь и вновь хочется возвращаться к творчеству популярной группы «Король и Шут», а в частности к композиции «Прыгну со скалы» (из «Акустического альбома» 1999 года). В тональности Am эта песня играется гораздо проще, чем в оригинальной — Dm . Хотя кому как. Смотрите сами.

Прыгну со скалы. Перебор

(Куплеты и проигрыши)

Бас—3-(2+1)—3-(2+1)-3-

  • проигрывается 2 раза на первом аккорде (Am) и на последнем (E7), а на остальных — по одному.

Для припевов хорошо подходит бой — шестерка с глушением:

Прыгну со скалы. Бой

Вниз—глушить-вверх—верх-глушить-вверх-

  • проигрывается по одному разу на каждом аккорде, кроме C и Em — на них по 2 раза.

Прыгну со скалы. Аккорды

(для тональности Am)

Прыгну со скалы - Киш - текст и аккорды в Am
Табы проигрыша для второй гитары:

2|------------------------------5----------
3|--5--5--5-5--4--2--0-----2-------7-5-4----
4|----------------------2------------------

_
2|------------------------------8--5-5-------
3|--5--5--5-5--4--2--0-----2------------3/5--
4|----------------------2--------------------

Спойлер

Прыгну со скалы - Киш - текст и аккорды

Табы проигрыша для второй гитары: 

1|---------------------------5-------
2|--6--6--6-6--5--3--1-----3----8-6-5-
3|-----------------------2-----------
1|---------------------------8---5-5------
2|--6--6--6-6--5--3--1-----3---------4/6-- 
3|------------------------2---------------

[свернуть]

Прыгну со скалы. Видео

(Неполный кавер с аккордами, разбор перебора/боя)

«ЛЕСНИК» (Король и Шут)
«ПРОКЛЯТЫЙ СТАРЫЙ ДОМ»
«ВОСПОМИНАНИЯ О БЫЛОЙ ЛЮБВИ»
«ЕЛИ МЯСО МУЖИКИ»
«ДОБРЫЕ ЛЮДИ»