Король и Шут — Кукла колдуна. Аккорды, табы на гитаре

Кукла-колдуна - КиШ - Аккорды

Кукла колдуна — офигенная известная песня КиШей (группы «КОРОЛЬ И ШУТ» )! Добрался я до нее на конец-то =) При разборе композиции сразу же столкнулся с первой трудностью — в родной тональности (Dm) ее нереально сложно спеть, а именно в припевах. Кто пробовал , тот поймет о чем я говорю… А сбацать очень хотелось, поэтому перевел ее в тональность Am. В итоге аккорды максимально упростились. По гитарному бою, тоже были противоречия, но я и тут пошел по проторенной дорожке =)

Бой Кукла колдуна

Вниз—глушить-вверх—вверх-глушить-вверх- и все сначала…

  • в куплетах: проигрывается по 1-му разу на каждом аккорде, кроме последних 3-х аккордов (Dm, E и G) — на них делаем по одному одиночному удару «вниз—«
  • в припевах: бой играется на первом аккорде — 2 раза, на втором — 1 раз + первые 2 движения боя, а на третьем аккорде доигрываем оставшиеся движения
  • в проигрышах: бой проигрывается также как и в припевах.

Бой в последних 2-х строках песни:

Вниз—вниз—вверх-глушить-вверх- и повтор…

  • обыгрывается по 1-му разу на каждом аккорде, кроме последнего (Е) — на нем 2 раза

Аккорды Кукла колдуна

Табы вступления в одну гитару (в тональности Am) — 2 раза:

     Am                Am
1|------0------------------0-------
2|-----1----0-0-----------1--0-----
3|----2----------2-2-----2------2--
4|---2------------------2---------
5|--0------------------0-----------
6|--------------------------------
    Am     Dm              Dm     E
1|-----------1--0-0----------1-0----
2|----0-1---3--------1-1----3-----0-
3|--2------2---------------2------1-
4|--------0---------------0---------
5|----------------------------------
6|--------------------------------0-

Проигрыш: Am | Am | Dm | Dm E — 2 раза

Табы для второй гитары в проигрыше (партия скрипки)

    Am
1|--------------------------------
2|--13--12-12--10-10---13-12-10---
             Dm                 Dm     E
1|-----------13--12-12----------13-12-----
2|--10-12-13------------13-13----------12-

А эти табы (тоже партия скрипки) проигрываются параллельно:

    Am
2|-----------------------
3|--5--4-4--2-2---5-4-2--
         Dm            Dm    E
2|--------6--5-5--------6-5------
3|--2-4-5---------5-5--------4---

Кукла-колдуна - КиШ - Текст и аккорды в Am

Спойлер

Кукла-колдуна - Киш - Аккорды

Аппликатуры присутствующих аккордов:

Аппликатуры аккордов песни - Кукла колдуна - КиШ

[свернуть]

 Кукла колдуна — КиШ — Табы-gp5 — Скачать архив (3,7 Кб)! Уже скачали 666 раз(а)

Видео Кукла колдуна

(кавер, аппликатуры аккордов в Am и разбор)

«ЛЕСНИК» (Король и Шут)
«ПРОКЛЯТЫЙ СТАРЫЙ ДОМ»
«ВОСПОМИНАНИЯ О БЫЛОЙ ЛЮБВИ»
«ЕЛИ МЯСО МУЖИКИ»
«ПРЫГНУ СО СКАЛЫ»
«СЕВЕРНЫЙ ФЛОТ»
«ДОБРЫЕ ЛЮДИ»

1,646