Невеста? — Мумий Тролль. Аккорды на гитаре

«Невеста?» — название интересной, позитивной песни от группы МУМИЙ ТРОЛЛЬ.
В оригинале звучит в тональности Am (в ля-миноре) — удобная, как в аккордах так и для вокала! С гитарным боем тоже ничего сложного нет. А вот на вступлении = проигрыше возможно придется немного потрудиться, хотя при желании его можно не играть (пропустить).

Бой Невеста

Вниз—вниз-вверх-вниз-вверх-вниз-вверх-

  • в куплетах — обыгрывается на аккордах по частям: на Am (Вниз—вниз-вверх-), а на следующем Dm (вниз-вверх-вниз-вверх-), и таким же образом обыгрывается следующая пара аккордов и так далее…
    Со слов «Бьешься за жизнь…» делаются одиночные движения (вниз—) по одному на аккорд.
  • В припевах — бой играется по одному разу на каждом аккорде кроме связки аккордов (Am G) на второй строке. Их обыгрываем также, как в куплетах.

Аккорды Невеста

Табы вступления (упрощенные):

2|------1-------0--------0------------
3|------2-------0--------0---2--------
4|---------------------------3--------
5|--0---------------------------------
6|----------4-3------3-0-----1----3-4-

2|------1-------0--------0------------
3|------2-------0--------0---2--------
4|---------------------------0--------
5|--0---------------------------------
6|----------4-3------3-0-----1----3-4-

Аккорды вступления / проигрыша:
Am G Em F | Am G Em Dm

Мумий Тролль - Невеста - Аккорды и слова

Мумий Тролль - Невеста - Аккорды и слова 2

Спойлер

Аккорды вступления / проигрыша:
 Am G Em Dm

Мумий Тролль - Невеста - Аккорды (вариант 2)Остальной текст есть выше…

[свернуть]

 Мумий Тролль — Невеста? — Табы-gp3 — Скачать файл (35,4 Кб)! Уже скачали 174 раз(а)

Видео Невеста

(кавер куплета и припева, аппликатуры аккордов и разбор)

«ВЛАДИВОСТОК 2000» (Мумий Тролль)
«ДЕВОЧКА»
«ДЕЛЬФИНЫ»
«УТЕКАЙ»

1,291