Марк Бернес — Любимый город. Аккорды в C

«Любимый город» — лирическая и патриотическая песня, которая звучит в к/ф Истребители, в исполнении Марка Бернеса! Для упрощения аккордов рекомендую играть ее в тональности C и дополнительно зажать каподастр на 3 ладу. Рекомендуемый метод игры — «щипок».

Любимый город. Метод игры

(упрощенный, на всю песню)

Бас-(321)-

  • для лучшего понимания смотрите видео разбор

Любимый город. Аккорды, текст

Табы вступления

            Em
1|-8--7--5--7-------
2|----------0--8----
3|----------0-------
4|------------------
5|------------------
6|----------0-------
   Dm              Am
1|-5------5--------5------
2|------6----8--6-----5---
3|----7-------------------
4|-0----------------------
5|-----------------0------
6|------------------------
   Dm          Am    
1|-------3--1--0-----0-----
2|----------------------3--
3|----2-----------2--------
4|-0-----------0-----------
5|-------------------------
6|-------------------------
   E           Am
1|------------------
2|-1-----1--0-------
3|----1--------2----
4|------------------
5|-2-----------0----
6|------------------

[свернуть]
G7           C    Dm    E7  E Am
 В далекий край товарищ улетает,
A       Dm       G7           C 
 Родные ветры вслед за ним летят.
F        Em      Dm          Am
 Любимый город в синей дымке тает,
Dm         Am           E7     
 Знакомый дом, зеленый сад 
              F
 И нежный взгляд.
         Em      Dm          Am
 Любимый город в синей дымке тает,
Dm         Am           E7         
 Знакомый дом, зеленый сад 
              Am
 И нежный взгляд.


G7          C     Dm  E7    E  Am
 Пройдет товарищ все бои и войны,
A         Dm      G7       C 
 Не зная сна, не зная тишины.
F        Em    Dm             Am
 Любимый город может спать спокойно
Dm         Am         E7            F
 И видеть сны, и зеленеть среди весны.
         Em     Dm            Am
 Любимый город может спать спокойно
Dm         Am         E7           Am
 И видеть сны, и зеленеть среди весны.


G7          C     Dm    E7     E  Am
 Когда ж домой товарищ мой вернется,
A          Dm   G7         C 
 За ним родные ветры прилетят.
F         Em    Dm       Am
 Любимый город другу улыбнется,
Dm         Am          E7          
 Знакомый дом,зеленый сад, 
             F
 Веселый взгляд.
          Em    Dm       Am
 Любимый город другу улыбнется,
Dm         Am          E7            
 Знакомый дом,зеленый сад, 
             Am
 Веселый взгляд.

Любимый город. Видео

(кавер с аккордами и разбор)

0,288