Куда уходит детство — юношеская песня в исполнеии Аллы Пугачевой с нотками приятной грусти! Звучит также  в х.ф. «Фантазии веснухина». В оригинале звучит в тональности Gm, но для упрощения гитарных аккордов рекомендую играть ее в Em, прежде всего для легкого обыгрывания вступления песни.

Куда уходит детство. Перебор

Бас-3-2-3-1-3-2-3-

Куда уходит детство. Бой

(в припевах)

Вниз—вверх-глушка—вверх-вниз-вверх-

(во втором и третьем куплетах)

Вниз—глушка-вверх—вверх-глушка-вверх-

  • для лучшего понимания смотри видео разбор

Куда уходит детство. Аккорды, текст

(от тональности Em)

Табы вступления

   Em
1|-0-----------0----------
2|----0-----0-----0-----0-
3|-------0-----------0----
4|------------------------
5|------------------------
6|-0----------------------

         
1|-2-----------2----------
2|----0-----0-----0-----0-
3|-------0-----------0----
4|------------------------
5|------------------------
6|-0----------------------


1|-3-----------3----------
2|----0-----0-----0-----0-
3|-------0-----------0----
4|------------------------
5|------------------------
6|-0----------------------


1|-2-----------2----------
2|----0-----0-----0-----0-
3|-------0-----------0----
4|------------------------
5|------------------------
6|-0----------------------


1|-0-----------0----------
2|----0-----0-----0-----0-
3|-------0-----------0----
4|------------------------
5|------------------------
6|-0----------------------

         
1|-2-----------2----------
2|----0-----0-----0-----0-
3|-------0-----------0----
4|------------------------
5|------------------------
6|-0----------------------


1|-5-----------3----------
2|----0-----0-----0-----0-
3|-------0-----------0----
4|------------------------
5|------------------------
6|-0----------------------

         
1|-2-----------2----------
2|----0-----0-----0-----0-
3|-------0-----------0----
4|------------------------
5|------------------------
6|-0----------------------

[свернуть]
Em           H7
 Куда уходит детство,
E             A 
 В какие города?
    Am   Am/C      Em
 И где найти нам средство
        F#             H7
 Чтоб вновь попасть туда?
Em             H7
 Оно уйдет неслышно,
E                  A 
 Пока весь город спит,
   Am     H7  Em
 И писем не напишет
    Am     F#    H7
 И вряд ли позвонит.

Припев:
E                     
И зимой и летом - 
    D#m            G#
Небывалых ждать чудес
 A                      
Будет детство где-то, 
        H7
Но не здесь.
E                     
И в сугробах белых, 
     D#m         G#
И по лужам у ручья
 A                   
Будет кто-то бегать, 
      H7
Но не я.


Em            H7
 Куда уходит детство,
E            A 
 Куда ушло оно?
   Am      Am/C   Em
 Наверно в край чудесный,
      F#            H7
 Где каждый день кино,
Em                H7
 Где также ночью синей
E                  A 
 Струится лунный свет,
    Am       H7   Em
 Но нам с тобой отныне
   Am   F#    H7
 Туда дороги нет.

 Припев


Em            H7
 Куда уходит детство?
E               A 
 В недальние края,
     Am   Am/C   Em
 К ребятам по соседству,
    F#           H7
 Таким же, как и я.
Em            H7
 Оно ушло неслышно,
E                  A 
 Пока весь город спит,
    Am    H7  Em
 И писем не напишет
    Am     F#    H7
 И вряд ли позвонит.

Припев

Куда уходит детство. Видео

(разбор с аккордами и примерами вокала)