Happy Birthday to you. Легкая мелодия

«Happy Birthday to you«(С Днем Рождения тебя) — известная поздравительная песня (мелодия), которую может сыграть любой, даже начинающий гитарист! Можно сыграть ее, как на одной струне, так и в более украшенном варианте, тем самым натренировать не только пальцы, но и постановку простых аккордов.

Happy Birthday to you. Табы, текст

(Вариант 1 — на одной струне. Тональность А)

          A           E7  
1|--0--0--2---0---5---4---|
2|------------------------|
3|------------------------|
4|------------------------|
5|------------------------|
6|------------------------|
  Ha-ppy Birth-day to You.


          E7          A
1|--0--0--2---0---7---5---|
2|------------------------|
3|------------------------|
4|------------------------|
5|------------------------|
6|------------------------|
 Ha-ppy Birth-day to  You.


          A         E  D
E|-0--0--12---9--5--4--2---|
H|-------------------------|
G|-------------------------|
D|-------------------------|
A|-------------------------|
E|-------------------------|
Ha-ppy Birth-day dear Some-one

           E7        A
E|-10--10--9---5--7--5----|
H|------------------------|
G|------------------------|
D|------------------------|
A|------------------------|
E|------------------------|
  Ha-ppy Birth-day to you

(Вариант 2 — посложнее)

          A           E7  
1|--0--0--2---0---5---0---|
2|--------------------3---|
3|--------------------1---|
4|--------------------2---|
5|--------------------2---|
6|--------------------0---|
  Ha-ppy Birth-day to You.


          E7          A
1|--0--0--2---0---7---0---|
2|--------------------2---|
3|--------------------2---|
4|--------------------2---|
5|--------------------0---|
6|------------------------|
 Ha-ppy Birth-day to  You.


          A            E  D
E|-0--0--12--9---------0--2--|
H|--------------10-10--0--3--|
G|---------------------1--2--|
D|---------------------2--0--|
A|---------------------2-----|
E|---------------------------|
Ha-ppy Birth-day dear Some-one

           A       E7 A
E|-10--10--9-------0--0----|
H|-------------10--3--2----|
G|-----------------1--2----|
D|-----------------2--2----|
A|-----------------2--0----|
E|-----------------0-------|
  Ha-ppy Birth-day to you

С Днем Рождения тебя. Видео

(исполнение и разбор мелодии на гитаре для начинающих)

С Днем Рождения тебя. Ноты

(тональность G)

Happy Birthday to you. Ноты

0,169