Гранитный камушек - Божья коровка - Аккорды

За песню «Гранитный камушек» можно смело браться всем желающим гитаристам — новичкам! У нее и гит.  бой простой и аккорды под стать. Разве что спеть в некоторых местах не всегда может получиться, т.к. присутствует там модуляция — переход  из одной тональности в другую, но при этом обе легкие. Поэтому все таки остается еще раз сказать, что песня действительно легкотня!

Гранитный камушек. Бой

Вниз—глушить-вверх—вверх-глушить-вверх-

  • на вступлении: проигрывается по 2 раза на каждом аккорде, за исключением связки аккордов (D C) — на них по 1-му разу.
  • в песне: в первых двух строках — бой проигрывается по 1-му разу на каждом аккорде, кроме второго аккорда Em — на нем 2 раза
    в третьей строке — по 2 раза на каждом аккорде
    в остальных строках — играем бой также как и в первых 2-х строках.

Гранитный камушек. Аккорды

Вступление:

Em D H7 Em |
Em Am D C H7

Табы вступления для 2-ой гитары (подбирал на слух)

1|-7-7-8-10-8--7-------------------------------
2|---------------10-8---10-10-12-13-12--10-8-7-

1|-5---7---8---7---5-------------------
2|---------------------8-7-8-10-12----

1|-7-7-8-10-8--7--------8-8-8-10-12--10-8--
2|---------------10-8----------------------

1|---------------------------7-
2|-------7---------8-------7---
3|-----7---------9-------8-----
4|---7--------10-------9-------
5|-5-------10-----------------

Гранитный камушек - Аккорды и текстГранитный камушек. Видео

(кавер, аппликатуры аккордов и разбор)

САМЫЕ ЛЕГКИЕ ПЕСНИ НА ГИТАРЕ!