Дневник Джессики — Когда ты улыбаешься. Аккорды на гитаре

«Когда ты улыбаешься» — от группы Дневник Джессики. Песня для ценителей хорошей рок-музыки на любовную тематику! В оригинале звучит в тональности С, на гитаре играется на квинт — аккордах. Но я обыграл ими только куплеты, а в припевах перешел на обычные — простые. При желании можно полностью сыграть легкими аккордами — без квинтов. С гитарным боем и вокальной частью тоже ничего сложного нет.

Бой Когда ты улыбаешься

в куплетах: вниз-вниз-вниз-вниз-вниз-вниз-вниз-вниз-

  • одиночные штрихи (удары) играются по верхним струнам, по 8 ударов на каждом аккорде

в припевах: вниз—вниз-вверх—вверх-вниз-вверх-

  • бой играется по одному разу на каждом аккорде

Табы, аккорды Когда ты улыбаешься

Табы вступления:

1|-----3--------3--------3/5--
2|--------5--------5----------
3|--0--------0--------0--0----


1|--5--------5--------5\3--
2|-----7--------7----------
3|--------0--------0--0----

1|-----3--------3--------3/5--
2|--------5--------5----------
3|--0--------0--------0--0----


1|--5--------5--------
2|-----7--------7-----
3|--------0--------0--

Аккорды вступления:

C5 H5 E5 G5

Когда ты улыбаешься. Слова, аккорды на гитаре
Когда ты улыбаешься. Слова, аккорды на гитаре2

Видео Когда ты улыбаешься

(кавер, аппликатуры аккордов и подробный разбор)

0,425