Песня под гитару от группы СЕКТОР ГАЗА! «Вой на луну» — Аккорды, табы, видео-разбор!

Вой на луну - Сектор Газа - Аккорды, табы, текст

В ноябре 2015 года вышел в свет посмертный альбом под названием "Вой на луну", посвященный Юрию Хою - лидеру группы "СЕКТОР ГАЗА". Неизданные ранее песни записанные самим Юрием на аудиокассету в 1981 году...Одноименная же песня записана в 1985-м на профессиональной студии. Остальную инфу можно почитать на оф. сайте группы Сектор Газа.
"Вой на луну" очень даже подходит для начинающих гитаристов (если не играть на квинтах), т.к. в ее аккордах отсутствует прием баррэ и играется несложным боем. Оригинальная тональность - Em (Ми-минор).

Описание гит. боя, текст, аккорды, табы и видео-разбор:

Всю песню можно сыграть разновидностью боя "четверки":

Вниз-вниз-вниз--вверх-  и повтор...

  • на вступлении - бой проигрывается по одному разу на каждом аккорде
  • в куплетах - на всех аккордах под названием Em - бой играется 2 раза, а на остальных - по одному, кроме аккордов последней строчки: там на каждом аккорде делаем по одному удару, либо по 2.

Для усиления аккомпанемента в припевах, можно добавить еще одно движение:

Вниз-вниз-вниз-вниз-вверх-...

  • бой проигрывается по одному разу на каждом аккорде припева.

"Вой на луну"

 Вступление/ проигрыш: G, D, Am, Em - 2 раза

Вой на луну - Сектор Газа - Аккорды и текст

Припев 2 раза -- затем заключительный проигрыш--

Табы вступления для второй гитары (подбирал на слух)

1|--10-10--8-8--7-8-7----------8-8-8--7--5-5-----
2|--------------------10-10------------------8-8-
1|--10-10--8-8--7-8-7----------8-8-8-8\7-5---
2|--------------------10-10----------------8-
1|--10-10--8-8--7-8-7----------8-8-8--7--5-5-----
2|--------------------10-10------------------8-8-
1|--10-10--8-8--7-8-7----------5-5-------
2|--------------------10-10--------8-7-5-

Как читать табулатуру?
Табы соло:

1|--7--10-10-8-8-7-----------8-8-7-7-------
2|-----------------10----10----------10-8--
1|--7--10-10-8-8-7-------12--10p8-7--
2|-----------------10----------------
1|--7--10-10-8-8-7--------------8-7-7-------
2|-----------------10----7-8-10-------10-8--
1|--------7--------------------------
2|--8-7-8---10-10-8-8-7-8-7-7h8p7-5--

Видео песни (кавер, аппликатуры аккордов и разбор)

ПЕСНИ ПОД ГИТАРУ ПОД БОЙ - "ЧЕТВЕРКУ"


Поляна для репоста и лайков!





 Опубликовано: 7 Дек. 2015. Просмотров: 904