BRAINSTORM — Выходные. Аккорды на гитаре

«Выходные» (от группы Rainstorm) — Звучит она в тональности Am. Есть один аккорд на баррэ (F), остальные легкие. Что касается правой руки, то тут не все так однозначно. Например, к первому куплету больше всего подходит метод «щипка», а дальше можно перейти на самый простой бой — «четверку», хотя припевы можно обыграть боем посложнее…

Метод игры Выходные

Бас-(3+2+1)- и повтор…

  • играется по 8 раз на каждом аккорде куплета, кроме последнего E — на нем 2 раза, а затем следует басовка (см. видео-разбор)

Рекомендуемый гит. бой с припева и до конца песни:

Вниз—вверх-глушить-вверх- и повтор…

  • в припевах проигрывается по 4 раза на каждом аккорде, кроме последних (С, G) — на них по 2 раза.
  • во втором куплете — по 4 раза на каждом аккорде, кроме последнего (E) — на нем 2 раза, а затем идет басовка (см. видео-разбор)

Аккорды Выходные

Вступление / проигрыш: Am F Dm E

Табы для второй гитары:

   Am
1|--8------8------8------8--------
2|----5-5----5-5----5-5-----5--5--

    F
1|--5------5------5------5-------
2|-------------------------------
3|----5-5----5-5-----5-5----5-5--
   Dm
1|--1------1------1------1-------
2|-------------------------------
3|----2-2----2-2-----2-2----2-2--
    E
1|--0------0-------------------
2|-----------------5--3--1--0--
3|----1-1----1-1---------------

Выходные - Brainstorm - Аккорды и текст

Припев — 2 раза

Видео Выходные

(кавер куплета и припева, аппликатуры аккордов и разбор)

1,438