В пути с песней под гитару! «Поход» — ЧИЖ — Аккорды и видео!

Иду в поход два ангела вперед - Чиж - АккордыВот уже и подошло время походов на природу — подальше от городской суеты, время посиделок не за компом, а у костра! Романтика, не иначе! 🙂
«Поход» — отличная песня по такому поводу от легендарной группы «ЧИЖ И С» .  Хотя, смысл сей песни не совсем про поход, разве что только припев будет в тему! =)
По игре на гитаре, композиция больше для опытных нежели для новичков.  Но при желании можно  упростить и аккорды и перебор.

Описание гитарного перебора. Аккорды, текст, табы вступления и видео:

Рекомендуемый гит. перебор всей песни:

Бас-3-2-1- и повтор…

еще как вариант:

Бас-3-(2+1)-3-…

  • проигрывается по 1-му разу на каждом аккорде

Текст и аккорды в родной тон-ти Dm:

«Поход»

Табы вступления / проигрышa — 2 раза

___Dm/C     Bmaj      A7  A7sus  Dm
1|--1-------1--0-------------0-5-5--------
2|-------3-------3----3-2-3--------6----6-
3|-----2-----------0------------------7---
4|-------------------------------0--------
5|--3----------1--------0-----------------
 _
 __Dm/C      Bmaj      A7  A7sus  Dm
1|--1-------1--0-------------0---------1--
2|-------3-------3----3-2-3----2--3------3-
3|-----2-----------0-----------------2-----
4|--------------------------------0------
5|--3----------1--------0----------------

Поход - Чиж - Аккорды и текст

Проигрыш:

Видео (кавер куплета и припева, аппликатуры аккордов и табы):

«О ЛЮБВИ» (Чиж и Со)
«ФАНТОМ»

«ВОТ ПУЛЯ ПРОСВИСТЕЛА»
«ВЕЧНАЯ МОЛОДОСТЬ»
«ПЕРЕКРЕСТОК»

1,456