«Кольцевая» — Звери — Аккорды, текст, табы и гитарный бой!

«Кольцевая» (от рок-группы «ЗВЕРИ») — в целом, если исполнить ее на гитаре, то песня несложная . Играется вся простым боем и практически на легких аккордах, за исключением одного — Hm, но и его при желании можно упростить. Для тех, кто решиться это сделать, рекомендую вот эту полезную ссылку -> КАК ПРОЩЕ ПОСТАВИТЬ АККОРД Hm.   А в остальном, проблем быть не должно. Так что, дерзайте!

Описание гитарного боя песни, текст с кордами и табами:

Вся песня играется боем — «шестерка»:

Вниз—глушка-вверх—вверх-глушка-вверх- и идем на повтор…

  • в куплетах  на первых двух аккордах — проигрывается по 2 раза,  а на остальных — по одному
  • в припевах на всех аккордах бой играется — по одному разу

«Кольцевая»
Аккорды вступления и табы для второй гитары:

  C    Am   Em    G |              C 
2|--8-8--8-8--8-8---------------------
3|---------------------0-2-3-2-0-2----
4|-------------------2-------------2--

  C    Am   Em     Hm
2|--8-8--8-8--8-8----
3|-------------------
4|-------------------

Кольцевая---Звери---Аккорды-и-текст

Аккорды проигрыша и табы для соло-гитары:

  Em                       C 
1|-----------------------2-3-0--3-0--3-0-3-
2|--5----5----5---5----5-------------------
3|----4----4----4----4---------------------

        Am          Hm        C        Hm
1|--0-2-3-5-0--5-0--5-0-7--5--5-3-2-0----------
2|-------------------------------------3-------
3|---------------------------------------4-2-4-

Данный проигрыш проигрывается 2 раза

Припев 2 раза

Аппликатуры присутствующих аккордов:

Кольцевая - Звери - Аппликатуры аккордов

Тексты и аккорды популярных песен группы Звери >>

ПЕСНИ ПОД ГИТАРУ ПОД БОЙ — «ШЕСТЕРКУ»!


1,511