«Первый снег» (Моральный кодекс) — Аккорды, видео!

Моральный Кодекс, "Первый снег", аккорды!

За моим окном уже практически лето, и я решил проводить весну композицией «Первый снег» (группы «Моральный Кодекс»). Предлагаю присоединиться!  Название зимнее, но стихи весенние и наполнены сказочным сюжетом… Как и во многих красивых песнях, так и в этой вся музыка состоит из 5-6 аккордов.  На видео (смотрите ниже) я ее исполнил в тональности Em , в оригинале не знаю какие аккорды, но и эти подходят на 99%   Там, где стоит аккорд в скобках (D) — значит он тоже подойдет вместо предыдущего (Hm). Здесь на ваше усмотрение!

Всю песню можно проиграть на гитаре. боем «шестеркой» :

в куплетах без глушения:

вниз—вниз-вверх—вверх-вниз-вверх-

  • играть нужно по 2 раза на каждый аккорд

А в припеве с глушением:

вниз—глушить-вверх—вверх-глушить-вверх-

  • по 1-му разу на аккорд

Хотя я играю обрывистыми и короткими движениями — сверху вниз. Ну мне так больше нравиться.

«Первый снег»

Моральный Кодекс, "Первый снег", аккорды!

 Видео (кавер и аппликатуры аккордов).
Проигрыш подбирал на слух, поэтому строго прошу не судить!

Табы для второй гитары в проигрыше:

Спойлер

1|-----------------------------------------
2|--8-7-8-------5/7--5-7-8--8-8--7-5-------
3|------------4------------------------8-4-
4|----------7-------------------------------

1|----------------------7-7h8-8-------------
2|--8-7-8-------5/7--8-----------5--8-7-5-5-
3|------------4-----------------------------
4|----------7-------------------------------

[свернуть]

Подбирал сам, поэтому не факт, что все верно. Как читать табулатуру?
Если есть мнение  и вопросы — пишите !!!

ПЕСНИ ПОД ГИТАРУ ДЛЯ ЛЮБИМОЙ!

1,419