Песня из фильма — Непогода. Табы, аккорды

«Непогода» — детская песня из к\ф Мэри Поппинс досвидания. Очень богата на аккомпанемент, что способствует развитю навыков игры на гитаре! Звучит в тональности D. Есть аккорды на баррэ, собственно данная композиция для более опытных гитаристов. Зато ее несложно петь!

Непогода Табы вступления

E|-----3-2-3-------3-2-3------2------|
B|-----3-2-3-------3-2-3--------3----|
G|--------------------------2-----2--|
D|----------------------------0------|
A|--------------0--------------------|
E|-0---------------------------------|

E|-0--------------------------0------|
B|---3------3--------2------0----3---|
G|-----2------4--------2-----------2-|
D|--------------4--------2-----------|
A|-4--------2--------0---------------|
E|--------------------------3----2---|

Вышенаписанное играется 3 раза (круга)
А остальное играем один раз:

E|------3-2-3-----------0---------|
B|------3-2-3---------2-----2-----|
G|------------------3---------3---|
D|--------------------------------|
A|---------------1----------------|
E|-0------------------------------|

E|----------------0-------------0-|
B|-3----------2---2----3-------2--|
G|---4---4------2------4------2---|
D|-----4---------------------2----|
A|-2----------0--------2----0-----|
E|--------------------------------|

Непогода. Перебор

(в куплетах)

Бас-3-2-3-1-3-2-3-

  • для лучшего понимания рекомендую посмотреть видео разбор

Непогода. Бой

(Во второй части куплетов)

Вниз—вверх-глушка-вверх-

  • обыгрывается по одному разу на каждом аккорде

(в припевах)

Вниз—глушка-вверх—вверх-глушка-вверх-

  • играется тоже по одному разу на каждом аккорде

Непогода. Аккорды, текст

D
 Изменения в природе
G            A
 Происходят год от года
D
 Непогода нынче в моде,
G           A   F#
 Непогода, непогода

Hm           Hm+7
 Словно из водопровода,
Hm7               E
 Льёт на нас с небес вода...

     G       A     D  Hm
 Полгода плохая погода,
     G       A       D Hm
 Полгода совсем никуда
     G       A     D  Hm
 Полгода плохая погода,
     G       F#     Hm
 Полгода совсем никуда!
 Припев:
           Em      A7    D     Hm
Никуда, никуда нельзя укрыться нам,
               Em       A7      D Hm
Но откладывать жизнь никак нельзя!
            Em       A7    
Никуда, никуда, но знай, 
      D     Hm
Что где-то там,
              Em    F#    Hm A
Кто-то ищет тебя среди дождя.

D
 Грома грозные раскаты,
G           A
 От заката до восхода
D
 За грехи людские плата -
G           A   F#
 Непогода, непогода...

Hm         Hm+7
 Не ангина, не простуда,
Hm7        E
 Посерьёзнее беда!

     G       A     D  Hm
 Полгода плохая погода,
     G       A       D Hm
 Полгода совсем никуда
     G       A     D  Hm
 Полгода плохая погода,
     G       F#     Hm
 Полгода совсем никуда

 Припев

Непогода. Видео 1

(табы вступления, аппликатуры аккордов и разбор)

Непогода. Видео 2

(кавер с аппликатурами аккордов и табами)

0,169