Мелодия из к/ф Джентльмены удачи. Табы и ноты

Тот, кто смотрел фильм «Джентльмены удачи«, тот обязательно слышал эту мелодию! Но мне больше всего приглянулась она в одном фрагменте (фигуристка катается возле новогодней елки), там, где звучит только на одной акустической гитаре… Мелодия очень лекая, поэтому ее можно смело рекомендовать начинающим гитаристам, к тому же она хорошо способствует развитию пальцев л. руки!

Джентльмены удачи. Табы

1|-0--1--0-----0-------
2|----------4-----1----

1|-0--1--0-----0-------
2|----------4-----1----

1|-0--7/8--7--5--0--1/3--
2|-----------------------

1|--1--0--1--0h1p0-------
2|------------------3----

1|-----3---1-0-1------
2|--3-------------3---

1|-----1/3---1-0-1------
2|--3---------------3---

1|-----3---1-0----1--0--
2|--3----------3--------

1|-------------------
2|--3--0--5h6p5--5---

Мелодия Джентльмены удачи. Видео

(подробный разбор мелодии с табами)

Джентльмены удачи. Ноты, табы

Мелодия из фильма Джентльмены удачи. Ноты, табы для гитары

0,146