«Знаешь ли ты» (от певицы МакSим) — душевный романс с грустными нотками, который с годами стал только популярнее, особенно среди гитаристов — девушек! Песня имеет аж 3 модуляции (множество аккордов), поэтому предлагаю на выбор два пути: сыграть всю песню в Em — для новичков, либо же — от тональности Am со всеми переходами + капо на 4-й лад.

Знаешь ли ты. Перебор

6(5)-3-2-1-2-3-4-3-

(либо упрощенный)

Бас-3-2-3-1-3-2-3-

Знаешь ли ты. Бой

Вниз—вверх-глушка-вверх-вниз-вверх-

  • в припеве играется по одному разу на каждом аккорде, в куплете — по разному

Знаешь ли ты. Табы, аккорды, текст

Табы вступления

   F
1|-------------------------------
2|-------------------------------
3|-2------0------------2-0-------
4|---3---------3-----------3-----
5|-----3-----3-------3-------3---
6|-1------1--------1-----------1-

   G
1|-----------------
2|-----------------
3|-4---------------
4|---5---7-----5---
5|-----5-----5-----
6|-3-------3-------

   F
1|-------------------------------
2|-------------------------------
3|-2------0------------2-0-------
4|---3---------3-----------3-----
5|-----3-----3-------3-------3---
6|-1------1--------1-----------1-

   G
1|-----------------
2|-----------------
3|-4---------------
4|---5---7-----5---
5|-----5-----5-----
6|-3-------3-------

   C    C/9   C    Cmaj7   F     
1|----------------------------
2|-5-----3-----1-----0--------
3|---0-----0-----0-----0---2--
4|-----0-----0-----0-----0----
5|-3-----3-----3-----3--------
6|----------------------------

       E
1|----------------------
2|-0-1------------------
3|-----1----------1-----
4|-------2---3------2---
5|---------2----2-------
6|-----0----------------

[свернуть]
         Am
Я так привыкла жить
          F           G
Одним тобой, одним тобой.
              Am
Встречать рассвет и слышать,
         F             G
Как проснёшься не со мной.
           F
Мне стало так легко дышать
      G      Am Asus2 Am
В открытое окно
        F              G
И повторять ей лишь одно…

Припев:
  Am            F
Знаешь ли ты, вдоль ночных дорог
  G           Em
Шла босиком, не жалея ног.
 Am                 F
Сердце его теперь в твоих руках,
 G            Em
Не потеряй его и не сломай.

  Hm            G
Чтоб не нести вдоль ночных дорог
 A                    F#m
Пепел любви в руках, сбив ноги в кровь.
 Hm                   G
Пульс его теперь в твоих глазах,
 A        F#m
Не потеряй его и не сломай.


         Hm
И в январе пусть бьётся
       G                A
Серый дождь к нему в окно,
           Hm
Пусть обнимает не меня,
    G             A
Но помнит все равно.
            G
И пусть случайно моё имя
   A          Hm Hsus2 Hm
Вслух произнесёт,
            G               A
И пусть молчит, что всё же помнит.
 
        Hm
А за окном сжигают
     G            A
Фонари проклятый дождь,
           Hm
Мой нежный мальчик,
             G          A
Ты прости меня за эту дрожь.
                 G 
И пусть сквозь слёзы прошептала
 A          Hm Hsus2 Hm
Тихое: "Прощай", -
        G           A
Не забывай, не забывай…

Припев:
  Hm            G
Знаешь ли ты, вдоль ночных дорог
  A          F#m
Шла босиком, не жалея ног.
Hm                     G
Сердце его теперь в твоих руках,
 A           F#m
Не потеряй его и не сломай.

 C#m             A
Чтоб не нести вдоль ночных дорог
 H                   G#m
Пепел любви в руках, сбив ноги в кровь.
C#m             A
Пульс его теперь в твоих глазах,
 H       G#m
Не потеряй его и не сломай.

 D#m            H
Чтоб не нести вдоль ночных дорог
 C#                   A#m
Пепел любви в руках, сбив ноги в кровь.
D#m             H
Пульс его теперь в твоих глазах,
 C#
Не потеряй его…

Вариант с простыми аккордами

       Em
Я так привыкла жить
         C            D
Одним тобой, одним тобой.
              Em
Встречать рассвет и слышать,
         C             D
Как проснёшься не со мной.
           C
Мне стало так легко дышать
      D       Em 
В открытое окно
         C             D
И повторять ей лишь одно…

Припев:
  Em            C
Знаешь ли ты, вдоль ночных дорог
  D          Hm
Шла босиком, не жалея ног.
 Em              C
Сердце его теперь в твоих руках,
 D        Hm
Не потеряй его и не сломай.

 Em             C
Чтоб не нести вдоль ночных дорог
 D                    Hm
Пепел любви в руках, сбив ноги в кровь.
 Em             C
Пульс его теперь в твоих глазах,
 D        Hm
Не потеряй его и не сломай.

и так далее...

Аппликатуры аккордов:

Знаешь ли ты. Простые аккорды в Em, на гитаре

[свернуть]

Знаешь ли ты. Видео-1

(разбор для новичков, аккорды в Em)

Знаешь ли ты. Видео-2

(игра под оригинал, табы и аппликатуры аккордов от Am)

Поддержи сайт через юмани:

1,283