ЗЕМФИРА — Хочешь? Аккорды на гитаре

«Хочешь?» — клевая, всем известная, романтичная песня от певицы ЗЕМФИРЫ! Правда немного грустная. Оригинальная тональность — F, для женского вокала самое то. Хотя эту песню, при желании, можно отнести в мужской репертуар, на такой случай поудобнее будет тональность С, в которой и аккорды станут намного легче…
В начале композиции звучит несложная басовая партия, на случай ненадобности или не удобности пения, ее спокойно меняем на простенький перебор.

Бой Хочешь

Вниз—вверх-вниз-вверх-вниз-вверх-

  • в первом четверостишии: на первой и третьей строчке — бой проигрывается по одному разу на каждом аккорде, а на 2-ой и 4-ой — по 2 раза.
  • на втором четверостишии: на первых трех строках — бой играется по 2 раза на каждом аккорде, а  на заключительной — по 1-му.

В проигрышах можно сыграть с глушением:

Вниз—вверх-глушение-вверх-вниз-вверх-

  • на аккордах обыгрывается также, как и предыдущий

Аккорды Хочешь

Табы басовки для первых 4х строк песни:

    F       Gm        Am
4|-------------------------2---2-------2-------
5|------3-------5---5-0---0-----0--0-0---0---0-
6|--1-------3-3--------------------------------
    F       Gm        A7
3|----------------------------------------0----
4|----------------------------2---2---------0--
5|------3---3------5---5-0---0-----0--0h4-----0-
6|--1--1-----3-3--3-----------------------------

Хочешь? - Земфира - Аккорды и текст

Концовка: Bb | Dm | Bb | Dm A -3 раза | Bb

Табы второй гитары в проигрышах:

    Bb                Dm                  
 4|--3---2-3--5-3-2-3---3---2-3--5-3-2-3-
    Bb                 Dm           A
 3|----------------------------------3-2-
 4|--3---2-3--5-3-2-3---3---2-3--5-2-----
Спойлер

Хочешь - Земфира - Аккорды в тональности С

\\ последний куплет 2 раза

Концовка: F | Am | F | Am  E — 3 раза | F

Аппликатуры аккордов этого подбора:

Хочешь - Земфира - Аппликатура аккордов в С

[свернуть]

Видео Хочешь

(игра под оригинал, аппликатуры аккордов и разбор)

 Хочешь?- Земфира — Табы-gp3 — Скачать архив (5,04 Кб)! Уже скачали 159 раз(а)

«ПРОСТИ МЕНЯ МОЯ ЛЮБОВЬ» (Земфира)
«ИСКАЛА»

0,580