«Чистые пруды» (от Игоря Талькова) — красивый, мелодичный романс на все времена! Начинает звучать в тональности C#m, потом в 3-м куплете идет модуляция в Dm и в последнем куплете возвращается в C#m. В общем, для значительного упрощения аккордов, рекомендую все песню играть в Am и для сохранения родного звучания, зажать каподастр на 4 ладу.

Чистые пруды. Методы игры

(перебор 1-го куплета и припева)

Бас-3-2-3-1-3-2-3-

(далее до последнего куплета)

Бас-3-(2+1)-3-

(в последнем куплете)

Вниз—

  • для лучшего понимания рекомендую посмотреть видео разбор

Чистые пруды. Аккорды, текст

   Am                
У каждого из нас 
         E
На свете есть места,
   E7            
Куда приходим мы 
    Am
На миг уединиться,
     Dm                 
Где память, как строка 
       Am
Почтового листа,
Dm                
Нам сердце исцелит, 
   Am        E7
Когда оно томится.

Припев:
 Am                     Dm
 Чистые пруды, застенчивые ивы,
G                      C      E
 Как девчонки, смолкли у воды.
Am                      Dm
 Чистые пруды - веков зеленый сон -
E                     
 Мой дальний берег детства, 
E7                 Am
 Где звучит аккордеон...

Проигрыш:
Am Dm7 G C F 
Dsus2 Dm E E7 Am

  Am                
И я спешу туда, 
            E
Там льется добрый свет
   E7                 
И лодки на воде, 
     Am
Как солнечные пятна.
   Dm               
Отсюда мы с тобой 
    Am
Ушли в круженье лет...
Dm                
И вот я снова здесь 
  Am           E7 
И ты придешь обратно.

Припев

  Am  
Однажды ты пройдешь 
     E
Бульварное кольцо,
    E7 
И в памяти твоей 
       Am         
Мы встретимся, наверно.
   Dm                Am
И воды отразят знакомое лицо,
   Dm
И сердце исцелят 
 Am         E7
И успокоят нервы.

Припев

   Am                
У каждого из нас 
     E
На свете есть места,
     E7                
Что нам за далью лет 
     Am
Все ближе все дороже.
     Dm               
Там дышится легко, 
     Am
Там мира чистота
     Dm                
Нас делают на миг 
      Am        E7
Счастливей и моложе.

Припев

Проигрыш:
Am Dm7 G C F  
Dsus2 Dm E E7 Am

Чистые пруды. Видео

(неполный кавер, аппликатуры аккордов и разбор)

Чистые пруды. Табы

(соло партии аккордеона в проигрыше)

    Am  
1|----------------
2|-0h1-0-1--------
3|----------------
4|---------2------
            Dm7 
1|---------------------
2|-----0-0h1-0-1-------
3|---2-----------------
4|-2-------------3-----
         G 
1|---------------------------
2|-----0-1-0-0---------------
3|---2---------2-2-0-0-------
4|-3-------------------3-3---
              C 
1|-------------------------
2|------------------5------
3|-------------------------
4|-2--3--3h5--3--2---------
   F                     Dsus2            
1|-------3/5---3-1------------
2|-5-6-8-----------3h5-6---3--
3|-----------------------5----
4|----------------------------
  Dm      E      E7
1|----3-1--------1-0--
2|-0------------------
3|--------1----1------
4|--------------------
            Am
1|---------------------
2|---1h3-1---0-1-------
3|-1-------1-----2-----
4|---------------------
1,474