Александр Серов — Как быть. Аккорды в Am

«Как быть» —  популярный романс конца 80-х в исполнении Александра Серова! Известен и в наши дни благодаря т/с Слово пацана… Хит звучит в тональности C#m, где очень много аккордов на баррэ, поэтому для их упрощения рекомендую играть в Am и при желании зажать капо на 4 или 3 ладу для удобства пения

Как быть. Методы игры

(в проигрышах)

Бас-3-2-3-1-3-2-3-

  • играется по одному разу на каждом аккорде

(в куплетах)

Бас+(2+1)-3-(2+1)-3-

(в припевах)

Вниз—вверх-глушка-вверх-вниз-вверх-

  • играются по разному (смотри видео разбор)

Как быть. Аккорды

(от тональности Am)

Вступление:  2р.
   Am
2|--------0-1-0----------
3|-----2--------2--------
4|---2------------2--2-0-
5|-0---------------------
6|----------------------- 
   Am/G
2|--------0-1-0----------
3|-----2--------2--------
4|---2------------2--2-0-
5|-----------------------
6|-3--------------------- 
   F
2|--------0-1-0----------
3|-----2--------2----2-0-
4|---3------------3------
5|-----------------------
6|-1--------------------- 
   E
1|----------0---------
2|--------0-----0-----
3|-1----1-----1---1---
4|----2---------------
5|--------------------
6|-0------------------

   Am Am+            G
Любви  быстрокрылый век 
   E  E7             Am
Исчез, словно талый снег 
   C                G
Затих, как осенний сад,
 Dm/F             C 
Его не вернуть назад, 
            Dm/F  E
Не вернуть назад
Припев:
         Am         Dm7
А может ночь не торопить 
          G         C
И все сначала повторить, 
          Fmaj7       Dm6
Нам все сначала повторить 
Hm7         E
О, как мне быть? 
         Am         Dm7
А может снова все начать,
        G         C 
Я не хочу тебя терять,
     Fmaj7        Dm6
Я не могу тебя терять! 
Hm7         E
О, как мне быть?

Проигрыш: 
Am Am/G F E - 1р.
  Am Am+         G
Погас  одинокий луч 
      E E7           Am
В плену  равнодушных туч,
    C                 G
Тернист был короткий путь
   Dm/F             C        
Любви   не простая суть, 
           Dm/F  E
Не простая суть

Припев - 2р

Как быть. Видео-1

(разбор вступления с табами)

Как быть. Видео-2

(кавер с аккордами и разбор)

0,641