А по тёмным улицам гуляет дождь (Одинокий вечер) — лирическая песня с эффектными смысловыми паузами и нотками грусти от группы Босиком по солнцу! По тексту она иключительно для женщнин, но при желании можно изменить несколько фраз… В остальном, песня больше для опытных гитаристов, как по аккордам, так и по самой игре.

А по темным улицам гуляет дождь. Перебор

Бас-3-2-3-

  • играется по 2 раза на каждом аккорде каждой строки первого куплета

А по темным улицам гуляет дождь. Бой

Вниз—вниз—вверх-вверх-вверх-вниз—вниз-вверх-

  • его играем по одному разу на каждом аккорде каждой строчки, как припева, так и следующих куплетов

А по темным улицам гуляет дождь. Аккорды

 

Табы вступления

  Am
1|-------------------------
2|-------5-----5-----5-----
3|----5--------------------
4|-7--------7-----7-----7--
5|-------------------------
6|-------5-----------------
   G
1|---------------------------- 
2|-6--5--3-----3--6-5-3---3---
3|----------------------5---5- 
4|----------5----------------- 
5|---------------------------- 
6|-------3--------------------
  Dm
1|------------------------- 
2|-3-----3-----3-----1--0-- 
3|----2-----2-----2--------
4|-0-----------0-----------
5|------------------------- 
6|-------------------------
  Am
1|------------------------- 
2|----------1--------1----- 
3|-2-----2--------2-----2-- 
4|----2-------------------- 
5|-0-----------0----------- 
6|-------------------------

[свернуть]
   Am                 G
Одинокий вечер без тебя,
      Dm                 Am
Тебя нет со мной, скучаю я…
     Am                    G
И пустует наш столик на двоих,
    Dm              Am
Догорают свечи, я одна. О-о-о-о

Припев:
Am                          F
 А по тёмным улицам гуляет дождь!
G                         Am
 Фонарей далёких мерцает свет!
Am                             F
 Ты сегодня уже наверно не придёшь…
G                        Am
 Тебя нет сейчас со мною нет!


        Am                      G
Где сейчас ты, почему ты не пришёл?
   Dm                   Am
Неужели дождь помехой стал…
         Am                 G
Ты ведь знаешь, я сейчас одна…
         Dm          Am
Плюй на дождь и приходи!

Припев

   Am                 G
Одинокий вечер без тебя,
      Dm                       Am
Не нужны мне даже, все мои друзья,
     Am                G
За окном дождь давно утих…
      Dm                    Am
Но пустует наш столик на двоих…

Припев

А по темным улицам гуляет дождь. Видео

(кавер с аккордами и подробным разбором)

1,275