Песня под гитару в 4 аккорда! «Возле дома твоего» — СЕКТОР ГАЗА — Аккорды, видео!

Возле дома твоего - Сектор Газа - Аккорды

"Возле дома твоего" - бессмертный хит от группы "СЕКТОР ГАЗА"! Бодрая, позитивная песня о деревенских буднях молодежи конца 90-х! =) Актуальна и в наши дни!
Знание всего 4-ёх легких аккордов и самого популярного (одновременно простого) гитарного боя - "шестерки" поможет быстро освоить эту композицию . Поэтому, настоятельно  рекомендую ее начинающим гитаристам!

Описание гитарного боя песни, текст с аккордами, табами и видео-разбор:

Вступление играется следующим способом:

вниз-1-2--1-2- и повтор...

  • делаем так по 1-му разу на каждом аккорде (2 круга вступления)

Рекомендуемый гит. бой всей песни:

вниз--вниз-вверх--вверх-вниз-вверх- и все сначала... в быстром темпе...

  • проигрывается по 1-му разу на каждом аккорде, как в куплетах, так и в припевах

Текст и аккорды в родной тон-ти G:

 "Возле дома твоего"

Возле дома твоего - Сектор Газа - Аккорды и текст

Табы для второй гитары в припевах (подбирал на слух):

__G       D    Em  C   G      D     Em     C
1|----------------------------------------7-8--7h8p7-5-
2|-----------------------------------------------------
3|--4--4--2-2-4-2-0-----4--4--2-2-2-0-4----------------
4|--------------------2--------------------------------
__G        D    Em  C    G     D     Em   C
1|-------------------------------------------
2|-------------------------3--3-3-3-1-0------
3|--4--4--2-2-4-2-0-----4----------------4-5-
4|--------------------2----------------------

Видео (неполный кавер, аппликатуры аккордов, разбор вступления и боя):

САМЫЕ ЛЕГКИЕ ПЕСНИ НА ГИТАРЕ!


Поляна для репоста и лайков!





 Опубликовано: 16 Мар. 2015. Просмотров: 1885