Как играть Ночные Снайперы — «Разбуди меня». Аккорды в Am и видео-разбор!

Аккорды песни "Разбуди меня" - от Ночных Снайперов

"Разбуди меня" - свежий хит Дианы Арбениной! Тема песни больше похожа на любовную лирику под ритмичный аккомпанемент - в лучших традициях группы Ночные Снайперы.
Родная тональность - Cm (До-минор). Все аккорды на баррэ. Поэтому для их упрощения, а также для удобства пения рекомендую играть всю пеню в Am (Ля-миноре). А вот гитарный бой, так или иначе, для более опытных гитаристов.

Гит. бой на вступлении:

Вниз--вниз--вверх-вверх--вверх-вниз--вниз-вверх-...

  • проигрывается по одному разу на каждом аккорде, кроме последних 2-х (F,E). На F (Вниз--вниз--), на Е доигрываем (вверх-вверх--вверх-вниз--вниз-вверх-)

Далее рекомендуемый бой на всю песню:

Вниз---вверх-глушка--вверх-вверх--вверх-глушка-вверх-вниз-вверх-...

  • в куплетах - обыгрывается по одному разу на каждом аккорде
  • в припевах - на первом ак. Am - 2 раза. На второй строке на Dm - 1 раз, а F и Е обыгрываем также как и на вступлении. Дальше на всех аккордах бой играется по одному разу.

"Разбуди меня"

Аккорды в тональности Am

Табы вступления:

1|-----------------------------------------
2|-----------1----1-------------1----1-----
3|-----------------------------------------
4|-----2--2----2-----0----2--2----2-----2--
5|--0--------------------------------------

1|----------------------------------------
2|--------3----3-------------3----3/5-----
3|----------------------------------------
4|--3--3----3-----3----3--3----3------4---
5|----------------------------------------

Аккорды вступления:

Am | С | Dm | F E

Ночные снайперы - Разбуди меня. Аккорды в Am на гитаре, слова песни

Ночные снайперы - Разбуди меня. Аккорды в Am на гитаре, слова песни2

1. Видео песни (игра под оригинал, аппликатуры аккордов в Am )

2.Видео песни (разбор. Тональность Am)

"31 ВЕСНА" (Ночные Снайперы)

Опубликовано: 21 Дек. 2017. Просмотров: 423