LUMEN (Люмен) — Сид и Нэнси. Аккорды, табы на гитаре

Сид и Нэнси - Люмен - Аккорды"Сид и Нэнси" (от группы "Люмен")  - энергичная песня о подростковой любви! Вся композиция звучит в одной и одновременно простой тональности Em. При ее разборе можно пойти, как по легкому пути (сыграть всю песню одним боем и без постановки квинт-аккордов), так и по сложному - тот, что ближе к оригиналу. Но в любом случае постараться придется.

Бой Сид и Нэнси

Вниз-вниз-вниз--вверх- и повтор...

  • первые 2 движения делаются по верхним струнам, 3-е - по всем и в акценте, а 4-е - по нижним.
  • в куплетах  бой проигрывается по 2 раза на каждом аккорде, кроме связки аккордов (D и D#) - на них по 1-му разу.
  • в проигрышах бой проигрывается по 1-му разу на каждом аккорде, кроме последних (D и D#)  - на D делаем движения: вниз-вниз- , а на D#: вниз--вверх- 

Аккорды Сид и Нэнси

Табы вступления:

3|--------4-----5-4---4--|-------4-----5-4----4--|
4|--2--2-----2------5----|--0--0----0------5-----

 

3|-------4-----5-4-----4-|--------2--0--------2--0--|
4|------------------5----|--0--0--------1--1--------|
5|--3--3----3------------|--------------------------|
Сид и Нэнси - Люмен - Аккорды и текст

Проигрыш - 4 раза

Табы соло-гитары в проигрыше после второго припева:

     E5     D5 C5 H5 C5 D5 E5
3|----2/4----4\2--------------
4|--2-------------5\4---------
5|----------------------5--7--
   D5 E5    D5 C5 H5 C5 D5 E5 H5 C5 H5 C5 E5
3|----2/4----4\2------------------------------
4|--2--------------5\4---------4--5--4-5--4/5-
5|----------------------5--7------------------

Видео Сид и Нэнси

(без кавера, аппликатуры аккордов и разбор перебора, боя)

"НЕБЕСА" (LUMEN)
"ГОРЕТЬ"

Опубликовано: 10 Ноя. 2015. Просмотров: 2573