«Седая ночь» — Ласковый Май (Ю. Шатунов) — Аккорды для гитары и видео-разбор!

Седая ночь - Аккорды на гитаре

"Седая ночь" - очень известная песня группы Ласковый май, а также Юрия Шатунова. Доносится практически из каждой летней кафешки и по сей день. В оригинале она поется под электронную музыку, но и на гитаре ее можно легко наиграть.
Ее родная тональность - Em (Ми-минор), при чем аккорды все легкие, но вокальная часть в припевах требует петь очень высокие ноты. Поэтому, для упрощения вокала, рекомендую транспонировать песню в тональность Am (ля-минор). Ниже представлены аккорды в этих 2-ух тональностях.

Описание игры на гитаре, аккорды, табы и видео-разбор:

Всю песню можно обыграть таким боем:

Вниз--глушка-вверх--вверх-глушка-вверх-...

"Седая ночь"

Вступление:

C | Am | Hm | H7 | C | Am | H7 | H7

Проигрыш:

Em Em | Am Am | H7 H7 | Em | Em E |

Am | D | G | Em | Am | H7 | Em | C H7 |

Табы для второй гитары под проигрыши:

2|----8---7---8-------10---8---7------------------
3|------------------------------------11---9---8--
4|--9---9---9-------7----7---7------9----9---9----

1|--------------------8---7-----------------------
2|----8---7---8---------------10------8----7---8--
3|------------------9---9---9---------------------
4|--9---9---9-----------------------9----9---9----

1|------3-----------------
2|--7-5---8-8--7-7--4-5---

Седая ночь - Аккорды для гитары, слова песниСедая ночь - Аккорды для гитары, слова песни 2

Видео песни (исполнение в 2-е гитары, аппликатуры аккордов и разбор)

 

Видео песни - 2 (кавер куплета и припева, аппликатуры аккордов в Am)

"БЕЛЫЕ РОЗЫ" (Ласковый май)
"ДЕТСТВО"

Опубликовано: 12 Июл. 2017. Просмотров: 74