Лепс — Самый лучший день. Аккорды для гитары

Самый лучшие день - Аккорды

Праздничная песня ГРИГОРИЯ ЛЕПСА - "Самый лучший день"- не скажу, что она сложная, но и простой ее точно не назовешь. Потому что, есть аккорды на баррэ, также есть модуляция в последнем припеве (при желании можно ее не делать), да и по вокалу требовательная. А вот гитарный бой легко освоит каждый ОПЫТНЫЙ  гитарист. =)

Бой Самый лучший день

первого куплета:

Вниз--вниз--вверх-вверх--вверх-вниз--вниз-вверх- и повтор...

  • первые 2 движения играем на первом аккорде, а оставшиеся на следующем
  • на последнем аккорде (F) - бой играется целиком 1 раз.

в припеве и далее на всю песню:

Вниз---вверх-глушить--вниз-вверх-вверх--вверх-глушить-вверх-вниз-вверх-

  • проигрывается по одному разу на каждом аккорде (начиная с Dm)

Аккорды Самый лучший день

Вступление:

C Gm | C Fm | Am Am/G | Fmaj7 F

Табы вступления для второй гитары:

    C              Gm              C             Fm
1|--12----12-------10--------------12----12------13---------
2|-----13----13-------11----11--------13----13------15---13-
3|-----------------------12----------------------------13---
    Am             Am/G           Fmaj7        F
1|--12----12-------12----12--------12--------------13--
2|-----13----13-------13----13-----------10-13---13----
3|-----------------12-----------------10-------14------

Самый лучший день -Аккорды и текстПроигрыш: Dm | Gsus4 G Gsus4 - 2 раза

Табы проигрыша для второй гитары:

2|-1-3--------------- //
3|--------5--4--2-0-- // 2р.

Самый лучший день - Аккорды и текст
 Самый лучший день - Лепс - Табы gtp - Скачать архив (5,9 Кб)! Уже скачали 314 раз(а)

Видео Самый лучший день

(кавер куплета и припева, аппликатуры аккордов и разбор боя)

"НАТАЛИ" (Г. Лепс)
"РЮМКА ВОДКИ НА СТОЛЕ"

Опубликовано: 6 Янв. 2016. Просмотров: 2379