Красивая и простая мелодия на гитаре! Табы

Попросили на днях разобрать одну простую и красивую мелодию на гитаре. Ее название не знаю, но похожа на колыбельную - играть приятно, слушать и одновременно засыпать. =) Наверное еще потому, что она на осенне-зимний лад и немного со сказочным оттенком! Но самое главное - на ней удобно тренировать пальцы обеих рук, т.к. по ходу игры перебираются все струны, также есть позиция для левой руки, в которой ставится квинт-аккорд, но несложный. Поэтому, удивить этой мелодией точно можно!

Табы простой и красивой мелодии

(Часть-1. Играется 4 раза)

1|---------0----------0-----------0--------------
2|------0----------0-----------0-----------0-----
3|---0----------0-----------0-----------0--------
4|-2---------------------0-----------4---------5-
5|------------3----------------------------------
6|-----------------------------------------------

(Часть-2. Играется 3-4 раза)

1|---0-----------0-----------0-----------0--------
2|------0-----------0-----------0-----------0-----
3|---------0-----------0-----------0--------------
4|-2-----------------------0-----------4--------5-
5|-------------3----------------------------------
6|------------------------------------------------

(Часть-3. Играется 4 раза)

1|-------------------------------0----------0--
2|--------------------0-------0----------0-----
3|---------0-------0-------0----------0--------
4|------4-------4--------0----------2----------
5|---2--------3--------------------------------
6|-0-------------------------------------------

Дальше идет повтор первой части (играется только 2 раза) и затем повтор второй части (тоже 2 раза) В заключении играем:

1|--0----
2|-------
3|-------
4|--2----

Как читать табы?

Видео простой и красивой мелодии

(исполнение и затем подробный разбор для начинающих)

МЕЛОДИИ НА ГИТАРЕ

Опубликовано: 19 Ноя. 2018. Просмотров: 123