Нервы — «Глупая». На легких аккордах. Видео-разбор на гитаре!

Аккорды песни "Глупая "- от группы Нервы

Для нашего времени, эта песня очень даже актуальная! :) К тому же, под гитару исполнить ее совсем несложно,  если не играть вступление и предварительно транспонировать аккорды из родной тональности A# в C, в которой все аккорды станут легкими! По гитарному бою: также можно все значительно упростить...

Гитарный бой первого куплета:

Вверх--вверх-глушка-

  • на аккордах C и G обыгрывается по 2 раза, а на Em - 4

Бой первого припева:

Вниз-вниз-вниз-вниз-

  • обыгрывается по 2 раза на каждом аккорде

Бой для второго куплета и припева:

Вниз--глушка-вверх--вверх-глушка-вверх-

  • в куплете на аккордах C и G играется по одному разу, а на Em - 2
  • в припеве на каждом из аккордов играем его по одному разу

"Глупая"

Табы вступления - 2 раза

1|--------------------------------
2|-5--x-5--x--5-5-5/3-x---------3-
3|-----------------------4--x-4---
4|--------------------------------
5|-3--x-3--x--3---3/--x-----------
6|-----------------------3--x-3---


1|--------------3-3/5-5-7h8p7-7-x-7-
2|-3/5-x-5--x-5---------------------
3|----------------------------------
4|----------------------------------
5|----------------------------------
6|-0---x-0--x-0---0-----0-------x---

Нервы - Глупая. Аккорды для гитары, слова песни Нервы - Глупая. Аккорды для гитары, слова песни 2

Видео песни (кавер, аппликатуры аккордов и разбор)

"КОФЕ-МОЙ ДРУГ" (Нервы)
"САМЫЙ ДОРОГОЙ ЧЕЛОВЕК"
"ВОРОНЫ"
"БАТАРЕИ"
"СЧАСТЬЕ"

Опубликовано: 4 Окт. 2018. Просмотров: 53