Народная песня под гитару! «На поле танки грохотали» — Чиж — Аккорды. Видео!

На поле танки грохотали - Аккорды на гитареПора начинать готовить репертуар к 9 Мая!
"На поле танки грохотали"
- советская народная военная песня. По моему, даже очень подходит! Ее и будем разбирать в этом посте.
При разборе ориентировался на версию исполнения этой композиции  Сергеем Чиграковым ("ЧИЖ и Со"). Вся песня идет в тональности Am (есть один аккорд на баррэ - F), и довольно высоковата для голоса. И если вдруг, кто-то испытывает с этим большие сложности рекомендую играть ее в тон-ти Em. Тут уже и новичок справится. Ну, что поехали!? В бой!!! ... Гитарный!

Описание гитарного боя, текст с аккордами и видео-разбор:

Рекомендуемый гит. бой песни:

бас--вниз--бас-вверх-вниз-- и повтор...

  • Движения вниз делаются  резко

Если, кому-то сложно играть боем, советую данный метод:

бас-(3+2+1)- и так далее...

  • Чтобы понять как проигрывать его на аккордах, посмотрите видео

Текст и аккорды:

Окрашенные строки поются два раза

"На поле танки грохотали"

На поле танки грохотали - Аккорды и текст

Табы для второй гитары (подбирал на слух):

2|---------------------------------------5-------------
3|-------------------4-5p4---------5--7-----5--7--4--5--
4|-----7----7-----7----------5---5----------------------
5|--7-----7----7---------------------------------------
_
2|--8-6-5-------5/6----5---------------------5---------5-
3|----------7-------------7--5p4---------5-7----7--5-7---
4|------------7-------------------7---7-----------------
 _
2|--8-6-5-------5/6---5----------------------5----------
3|----------7------------7--5p4---------5-7----7--5-4---
4|------------7------------------7---7----------------7-

ТАБУЛАТУРЫ. КАК ИХ ЧИТАТЬ?

Видео (кавер 4-х куплетов, аппликатуры аккордов в Am и Em + разбор боя):

АРМЕЙСКИЕ ПЕСНИ ПОД ГИТАРУ!

"ТАКИЕ ДЕЛА" (Чиж и Со)


Поляна для репоста и лайков!





 Опубликовано: 8 Апр. 2015. Просмотров: 1940