Многоточие — «В жизни так бывает». Аккорды и видео-разбор на гитаре!

Многоточие - В жизни так бывает - Аккорды на гитаре

"В жизни так бывает..." - ритмичный, известный среди гитаристов хит от группы Многоточие! Отлично подходит для исполнения в уютной компании хороших знакомых, в осеннюю - дождливую погоду! =)
Звучит она в тон-ти Em, где все аккорды простые, к тому же их всего лишь три штуки на всю песню. Но гитарный перебор и бой требуют хорошего навыка игры. А в остальном. все как обычно - играем, поем, переставляем аккорды и держим ритм.

Табы перебора вступления:

   Em7                    C/9
1|------------0-----------------------0---------
2|-------3------3----3----------3--------3----3-
3|----------0------0----------------0-------0---
4|-----2----------------------2-----------------
5|-------------------------3--------------------
6|--0-------------------------------------------

   Dsus2        D         Em7
1|---------0----2--------------------0---------
2|-------3----3---3---3---------3-------3----3--
3|-----2------------2--------------0-------0----
4|--0------------------------2------------------
5|----------------------------------------------
6|------------------------0---------------------

Рекомендуемый бой на всю песню:

Вниз--вниз-вверх-глушка---вверх-вверх--вверх-глушка-вверх-вниз-вверх-

  • обыгрывается по одному разу на каждом аккорде куплетов и припевов.

"В жизни так бывает..."

Аккорды вступления:

Em7 | C/9 | Dsus2 D | Em7

Табы партии соло-гитары:

2|----------3-3-1---1------------------
3|-2/4-4-4------------4-2---4-2-0------
4|--------------------------------0h2--

1|-5/7-7-7--10-10p8-8---8-7-5---7-5---------0h3-5-7h8-7-
2|----------------------------------8-3h5---3-----------
3|----------------------------------------0-------------

Многоточие - В жизни так бывает - аккорды и слова песни Многоточие - В жизни так бывает - аккорды и слова песни 2

Припев

Видео песни (кавер, аппликатуры аккордов и разбор)

Опубликовано: 6 Сен. 2017. Просмотров: 362