Новогодняя мелодия на гитаре — Маленькой елочке холодно зимой

Пора уже начинать готовиться к новогодним праздникам. Предлагаю разобрать одну из самых известных детских, новогодних мелодий Маленькой елочке холодно зимой. Конечно же, изначально она является песней, но тем кто не умеет петь или не желает этого делать, рекомендую разучить на гитаре именно мелодию, да и играется она совсем несложно, тем более есть самый простой вариант ее исполнения.

Ноты, табы Маленькой елочке холодно зимой

Мелодия на гитаре - Маленькой елочке холодно зимой. Ноты, табыМелодия на гитаре - Маленькой елочке холодно зимой. Ноты, табы2

Самый простой вариант мелодии (табы голосовой партии):

1|--------------------------------
2|--3--0-0---3--0-0---3-1-0-------
3|--------------------------2-0---

1|--0--1-0------------------------
2|-----------3--0-0---3-1-0-------
3|--------------------------2-0---

1|--0--1-0------------------------
2|-----------3--0-0---3-1-0-------
3|--------------------------2-0---

Видео Маленькой елочке холодно зимой

(Разбор двух версий мелодии: посложнее и самой простой-для новичков)

Разбор простого варианта начинается с 5:45 минуты

"МАЛЕНЬКОЙ ЕЛОЧКЕ ХОЛОДНО ЗИМОЙ" (Песня)

"В ЛЕСУ РОДИЛАСЬ ЕЛОЧКА" (Мелодия)

Опубликовано: 28 Ноя. 2018. Просмотров: 59