Застольная песня под гитару! «Кума» — СЕКТОР ГАЗА — Аккорды, табы, видео!

Кума - Сектор-Газа - Аккорды

Cколько уже лет прошло, а эту песню до сих пор слушают и исполняют под гитару! "Кума" (от группы "СЕКТОР ГАЗА") - в веселой, застольной компании пойдет на ура!
Если честно, у меня бы руки до нее наверное не дошли, если бы не увидел комментарий с просьбой о ее разборе. Но подробного объяснения я не стал делать, и на это есть причины: a) Оригинальные аккорды и бой - не для начинающих, а опытным такие разборы не нужны. б) В простой тональности (Em) ее споют единицы (высоковато для голоса в припевах) Хотя, на всякий случай я выложил аккорды и описание боя для двух вариантов.

Описание гитарного боя, текст с аккордами, табами и видео:

Рекомендуемый гитарный бой -1

Вниз--вниз-вверх-вниз--вниз-вверх- и повтор... В быстром темпе

Таким же боем играются песни: "КАЗАЧЬЯ" (Сектор Газа),  "СТУК" (Кино) и "ХОЧУ ПЕРЕМЕН" (Кино) - акустическая версия

  • первые 3 движения делаются преимущественно по верхним струнам, а остальные 3 - по нижним
  • в куплетах - бой проигрывается по 2 раза на каждом аккорде, кроме последних 2-х A и Dm - на них по 1-му разу.
  • в припевах -  бой нужно проигрывать по 1-му разу на каждом аккорде

Рекомендуемый бой - 2

Вниз--глушить-вверх--вверх-глушить-вверх- и повтор...

  • в куплетах - проигрывается по 1-му разу на каждом аккорде, кроме последних 2-х A и Dm. На А - делаем вниз--глушить-, а на Dm - вверх--вверх-глушить-вверх-
  • в припевах - лучше перейти на бой - 4-ку: вниз-вверх-глушить-вверх- данный бой проигрывается по 1-му разу на аккорде

"Кума"

Вступление / проигрыш: Gm, Dm, A, Dm - 4 раза

Табы для второй гитары под проигрыш (партия синтезатора)

   Gm    Dm         A      Dm   
1|-----6--5-----5-6-8-6-5---5----
2|------------8-----------8------
3|--7--------------------------7-
   Gm    Dm         A       Dm 
1|-----6--5-----5-6-8-6-5------
2|------------8-----------8----
3|--7------------------------7-

// Табы проигрываются 2 раза

Кума - Сектор Газа - Аккорды и текст

Табы соло:

       Dm           Gm           Dm            A    Dm   
1|----------------------6-----------------------------
2|-------------------8----8---8-8-8--6--6--6-6-5h6p5--
3|-----7--10-7---7-7---------------------------------7-
4|-7-7-------------------------------------------------
       Dm           Gm              Dm           A    Dm   
1|----------------------6-----10-10-10--5---------------
2|-------------------8----8---------------6--6-6-5h6p5--
3|-----7--10-7---7-7-----------------------------------7-
4|-7-7---------------------------------------------------

Видео к песне (разбор гит. боя, аккорды и кавер)


Поляна для репоста и лайков!





 Опубликовано: 9 Фев. 2016. Просмотров: 603