Белый Орел — Как упоительны в России вечера. Аккорды для гитары

"Как упоительны в России вечера" - известная, красивая композиция от группы Белый Орел! Вместе с красотой песня взяла в себя и определенную сложность для исполнения под гитару. Во первых - тональность (С#m) не самая удобная, как для вокала, так в аккордной части, а во вторых - после 2-го куплета идет модуляция в тональность Dm, что увеличивает количество аккордов, да и повышает требовательность к вокалу. Поэтому, при желании можно сыграть ее в одной тональности без модуляции, а также для упрощения самих аккордов рекомендую перевести их в тон-ть Am и чтобы не терять родного звучания - зажать каподастр на 4-м ладу.

Перебор Как упоительны в России вечера

(Бас+1)-2-3-2- и повтор...

  • чтобы быстрее понять как он проигрывается на аккордах, посмотрите виде-разбор с 04:38 минуты.

Аккорды Как упоительны в России вечера

 Этими аккордами лучше всего играть с зажатым каподастром на 4-м ладу.

табы вступления:

   Am                       Dm 
1|--------------1-0-7-5--0-3-1----
2|---0----3--1--------------------
3|-----2--------------------------
4|-2------------------------------

   G                  C         E 
1|--1-1-0-1-0--1-3-1h3p1-0--0-0-1--0-1-0-

    Am              Dm 
1|--------------1-0-3-1--0-1-0h1p0---
2|---0----3--1---------------------3-
3|-----2--------------------------
4|-2------------------------------

           Am          E       Am
1|--10-8-7-5----------7/8-7-5-4-5--
2|------------3--4--5--------------
Как упоительны в России вечера - Аккорды в Am и текст

Видео Как упоительны в России вечера

(кавер, аппликатуры аккордов в Am и разбор)

"ОТЧЕГО ТАК В РОССИИ БЕРЕЗЫ ШУМЯТ" (Любэ)

Опубликовано: 5 Авг. 2016. Просмотров: 1862