Наутилус Помпилиус — Гудбай Америка. Аккорды на гитаре

"Гудбай, Америка" - хит от группы "НАУТИЛУС ПОМПИЛИУС"! А. если быть точным, называется эта песня "Последнее письмо", что тоже логично, но уже не так узнаваемо. В целом, тем кто может ставить аккорды на баррэ и уверенно играть боем - "шестерка", исполнить эту композицию на гитаре будет несложно. К слову, можно обойтись и без баррэ, если сменить тональность (с родной - Am на Em)

Первый куплет играется одиночным,  медленными движениями:

Вниз---

  • делается по 1-му разу на каждом аккорде

Бой Гудбай Америка

Вниз--вниз-вверх--вверх-вниз-вверх-

  • чтобы понять по сколько раз нужно его проигрывать на аккордах, смотрите видео разбор, после кавера (с 05:34 минуты.).

Аккорды Гудбай Америка

Гудбай-Америка-Аккорды-и-текст

Табы  для второй гитары в припевах (подбирал на слух)

1|--7/8--7-5-------|------5-8--5------|
2|-----------6-7---|--5-6---------5---|
1|--5/8--7-5-------|-------------|
2|-----------6-7---|------5-6-5--|
3|-----------------|----7--------|
4|-----------------|--7----------|

Табы  для второй гитары в проигрыше:

          Am     C   F  G     E7
1|----5-7-8--7-5------8-8---7-5---------|
2|--5------------5--------------5h6p5---|
         Am       Dm          C      E7  Am  (E7)
1|--9/10-10---8-7-7h8------8-8-----7-7--4-5-|
2|--------------------6--------5------------|

Видео Гудбай Америка

(кавер, аппликатуры аккордов и разбор)

"ПРОГУЛКИ ПО ВОДЕ" (Наутилус Помпилиус)
"НА БЕРЕГУ БЕЗЫМЯННОЙ РЕКИ"
"КРЫЛЬЯ"
"Я ХОЧУ БЫТЬ С ТОБОЙ"
"ДЫХАНИЕ"

Опубликовано: 5 Ноя. 2015. Просмотров: 2010