«Главное — что есть ты у меня — ЛЮБЭ — Аккорды и видео-разбор!

Главное-что есть ты у меня - Любэ - Аккорды "Главное - что есть ты у меня" (от легендарной группы ЛЮБЭ) - пожалуй одна из самых достойных песен под гитару! Сочетает в себе и любовную лирику и в тоже время отражает сильный характер людей сурового времени. Это вам не "Медлячок" (от Басты) =))
Песня звучит в удобной тональности Em - без баррэ и играется несложными перебором и боем. Единственное, что может затруднить ее исполнение, так это довольно высокий вокал в куплетах. Но, те у кого голос грубый, при желании смогут спокойно спеть на октаву ниже.

Описание гит. перебора, боя, текст с аккордами, табами и видео-разбор:

Гитарный перебор в первом четверостишии:

Бас-3-2-3-1-3-2-3 - и повтор...

  • проигрывается по одному разу на каждом аккорде, кроме аккордов четвертой строки. На H7 делаем движение "вниз---", а с Em вступает гит. бой:

  Вниз---вверх-глушка-вверх-вниз-вверх-

  • в проигрышах: обыгрывается на Em - 4 раза, на Am и Н7 - по 2.
  • в куплетах: по 2 раза на каждом аккорде, кроме аккордов заключительной строки (на H7 - делаем движение "вниз---", а на Em - делаем 4 удара "вниз-").
  • в припевах: на первой строке бой играется по 2 раза на каждом аккорде, а дальше по одному.

Главное-что есть ты у меня - Любэ - Аккорды и текстПроигрыш: Em, Am, H7 - 2 раза

   Em                        Am                   H7 
1|--------------------------------------------------------------
2|---------------------3----------------------------------------
3|---0-2-4-4--4-2-4-4----4----4-2-0-2--2-2h4p2-2----0-2-4\2-0-4-
4|-2----------------------------------------------2-------------

         Em                        Am                  H7 
1|---------------------------------------------------------
2|---------------------3-----------------------------------
3|---0-2-4-4--4-2-4-4----4----4-2-0-2--2-2h4p2-2----0-2-4--
4|-2----------------------------------------------2--------

Главное что есть ты у-меня - Любэ - Аккорды и текст

Припев - 2 раза и затем проигрыш

Видео к песне (кавер, аппликатуры аккордов и разбор)

ПЕСНИ ПОД ГИТАРУ ПРО ЛЮБОВЬ!
АРМЕЙСКИЕ ПЕСНИ ПОД ГИТАРУ!


Поляна для репоста и лайков!





 Опубликовано: 15 Ноя. 2016. Просмотров: 31