Хит под гитару от Гарика Сукачева! «Моя бабушка курит трубку» — Аккорды и видео-разбор!

Моя бабушка курит трубку - Сукачев - Аккорды

"Моя бабушка курит трубку" - энергичный и веселый хит Гарика Сукачева! Лично меня больше всего порадовало вступление и проигрыши песни, а точнее партия соло-гитары, играть ее - сплошное удовольствие! =) Родная тональность песни Dm (ре-минор), в которой есть один аккорд на барре. Для упрощения я перевел ее в тон-ть Em (ми-минор), правда сказать, для вокала она выходит чуток повыше (на 1 тон), но для меня это самое то. Ниже привел аккорды 2-ух вариантов. Что касается гитарного боя, то ее можно обыграть как минимум 2-мя видами, но я рекомендую самый подходящий и простой!

Описание гит. боя, табы, аккорды, текст и видео-разбор:

Рекомендуемый бой на всю песню:

Вниз--вниз-вверх-вниз-вверх-вниз-вверх- и повтор...

  • на первых 5-ти строках куплета - бой играется по 3-4 раза на каждом аккорде, а далее преимущественно по 1-му, а на связках аккордов Е7, E/G# | Am, Am/C | Em,E7| - на первом аккорде играются первые 2 движения (вниз--вниз-), а на втором доигрываются оставшиеся (вниз-вверх-вниз-вверх). Для лучшего понимания смотрите видео-разбор.

"Моя бабушка курит трубку"

Табы и аккорды для второй гитары на вступлении и проигрыше:

         Em                          H7 
3|-----------0----------0---------0--------
4|----0-1-2----2---2--2---2---2-2---2-3-4--
5|--2--------------------------------------

         H7                                   Em  
3|-----------2---------2-----------------------------
4|----2-3-4----4---4-4----4------------------0h2-2-2-
5|--2--------------------------2-2-3-2-0-------------
6|---------------------------------------3-2---------
         Em                   E7  E/G#   Am  
3|-----------0----------0---------1---0-1-2--
4|----0-1-2----2---2--2---2---2-2---1--------
5|--2----------------------------------------

   Am      Am/C    Em        H7           Em     E7   E/G# 
3|--2-2----2-2---------------------------------------------
4|------------------5-6-5------------------2-2-2-3-2-0-----
5|------0------0-------------2-2-3-2-0-----------------3-2-
6|-------------------------------------3-2-----------------
   Am      Am/C    Em        H7           Em 
3|--2-2----2-2--------------------------------
4|------------------5-6-5--------------0-1-2--
5|------0------0-------------2-1-2-3-4--------
Моя бабушка курит трубку - Сукачев - Аккорды и текст

Видео песни (кавер первого куплета, аппликатуры аккордов в Em и разбор для новичков)


Поляна для репоста и лайков!





 Опубликовано: 6 Июл. 2016. Просмотров: 292