«А мы не ангелы, парень» — Алексей Пономарев — Аккорды и видео-разбор!

А мы не ангелы парень - аккорды на гитаре

"А мы не ангелы, парень" (автор Алексей Пономарев) - очень интересная и популярная песня среди гитаристов!
Играется она в тональности Em. Все аккорды простые, но перебор и бой все таки требуют хорошего навыка. При желании (если вы новичок), для упрощения аккомпанемента, всю песню можно обыграть более легким перебором - "восьмеркой" (бас-3-2-3-1-3-2-3-) - без перехода на гитарный бой.

Описание игры на гитаре, аккорды, табы, слова и видео-разбор:

Перебор в куплетах:

На аккорде Em: (6+1)--3-1--3-2-3-
На аккорде. Dsus2: 4--3-1-2-3-4-3-
На аккорде. Сadd9: 5--3-1-2-3-2-4-
На аккорде. Dsus2: 4--3-1-2-3-4-3-

  • в самом конце куплета на ак. Dsus2  перебор играем 2 раза и после чего еще извлекаем на нем же: (4+1)

Бой в припевах:

Вниз---вверх-вниз--вниз-вверх-вверх--вверх-вниз-вверх-вниз-вверх-

"А мы не ангелы, парень"

Табы перебора на вступлении (2 раза):

   Em                     Dsus2
1|--0------0-----------|----------0------------|
2|----------------0----|--3---------3----------|
3|-------0------0---0--|--------2------2----2--|
4|---------------------|--0---------------0----|
5|---------------------|-----------------------|
6|--0------------------|-----------------------|

   Cadd9                Dsus2
1|-------0-----------|-----------0------------|
2|---------3---3-----|---3---------3----------|
3|-----------0-------|---------2------2----2--|
4|-----2---------2---|---0---------------0----|
5|--3----------------|------------------------|

На втором круге на последнем аккорде играем:

   Dsus2
1|---------------0---|
2|---0h3-----3-------|
3|---------2---------|
4|---0-----------0---|
5|-------------------|

А мы не ангелы, парень - аккорды на гитаре, слова песни

А мы не ангелы, парень - аккорды на гитаре, слова песни 2

Видео песни (кавер, аппликатуры аккордов и разбор)

Опубликовано: 22 Июл. 2017. Просмотров: 311